  0
SECTION
  2
HEADER
  9
$ACADVER
  1
AC1009
  9
$DWGCODEPAGE
  3
ansi_1252
  9
$INSBASE
 10
0.0
 20
0.0
 30
0.0
  9
$EXTMIN
 10
1.000000000000000E+20
 20
1.000000000000000E+20
 30
1.000000000000000E+20
  9
$EXTMAX
 10
-1.000000000000000E+20
 20
-1.000000000000000E+20
 30
-1.000000000000000E+20
  9
$LIMMIN
 10
0.0
 20
0.0
  9
$LIMMAX
 10
12.0
 20
9.0
  9
$ORTHOMODE
 70
     0
  9
$REGENMODE
 70
     1
  9
$FILLMODE
 70
     1
  9
$QTEXTMODE
 70
     0
  9
$MIRRTEXT
 70
     1
  9
$DRAGMODE
 70
     2
  9
$LTSCALE
 40
1.0
  9
$OSMODE
 70
    37
  9
$ATTMODE
 70
     1
  9
$TEXTSIZE
 40
0.2
  9
$TRACEWID
 40
0.05
  9
$TEXTSTYLE
  7
STANDARD
  9
$CLAYER
  8
_ANNOTATION$DIMS_AND_ANNO
  9
$CELTYPE
  6
BYLAYER
  9
$CECOLOR
 62
   256
  9
$DIMSCALE
 40
1.0
  9
$DIMASZ
 40
0.18
  9
$DIMEXO
 40
0.0625
  9
$DIMDLI
 40
0.38
  9
$DIMRND
 40
0.0
  9
$DIMDLE
 40
0.0
  9
$DIMEXE
 40
0.18
  9
$DIMTP
 40
0.0
  9
$DIMTM
 40
0.0
  9
$DIMTXT
 40
0.18
  9
$DIMCEN
 40
0.09
  9
$DIMTSZ
 40
0.0
  9
$DIMTOL
 70
     0
  9
$DIMLIM
 70
     0
  9
$DIMTIH
 70
     1
  9
$DIMTOH
 70
     1
  9
$DIMSE1
 70
     0
  9
$DIMSE2
 70
     0
  9
$DIMTAD
 70
     0
  9
$DIMZIN
 70
     0
  9
$DIMBLK
  1

  9
$DIMASO
 70
     1
  9
$DIMSHO
 70
     1
  9
$DIMPOST
  1

  9
$DIMAPOST
  1

  9
$DIMALT
 70
     0
  9
$DIMALTD
 70
     2
  9
$DIMALTF
 40
25.4
  9
$DIMLFAC
 40
1.0
  9
$DIMTOFL
 70
     0
  9
$DIMTVP
 40
0.0
  9
$DIMTIX
 70
     0
  9
$DIMSOXD
 70
     0
  9
$DIMSAH
 70
     0
  9
$DIMBLK1
  1

  9
$DIMBLK2
  1

  9
$DIMSTYLE
  2
STANDARD_ACAD
  9
$DIMCLRD
 70
     0
  9
$DIMCLRE
 70
     0
  9
$DIMCLRT
 70
     0
  9
$DIMTFAC
 40
1.0
  9
$DIMGAP
 40
0.09
  9
$LUNITS
 70
     2
  9
$LUPREC
 70
     3
  9
$SKETCHINC
 40
0.1
  9
$FILLETRAD
 40
0.5
  9
$AUNITS
 70
     0
  9
$AUPREC
 70
     0
  9
$MENU
  1
.
  9
$ELEVATION
 40
0.0
  9
$PELEVATION
 40
0.0
  9
$THICKNESS
 40
0.0
  9
$LIMCHECK
 70
     0
  9
$CHAMFERA
 40
0.0
  9
$CHAMFERB
 40
0.0
  9
$SKPOLY
 70
     0
  9
$TDCREATE
 40
2458933.807301574
  9
$TDUPDATE
 40
2458933.807321377
  9
$TDINDWG
 40
0.0000000116
  9
$TDUSRTIMER
 40
0.0000000116
  9
$USRTIMER
 70
     1
  9
$ANGBASE
 50
0.0
  9
$ANGDIR
 70
     0
  9
$PDMODE
 70
     0
  9
$PDSIZE
 40
0.0
  9
$PLINEWID
 40
0.0
  9
$COORDS
 70
     1
  9
$SPLFRAME
 70
     0
  9
$SPLINETYPE
 70
     6
  9
$SPLINESEGS
 70
     8
  9
$ATTDIA
 70
     0
  9
$ATTREQ
 70
     1
  9
$HANDLING
 70
     1
  9
$HANDSEED
  5
5A4
  9
$SURFTAB1
 70
     6
  9
$SURFTAB2
 70
     6
  9
$SURFTYPE
 70
     6
  9
$SURFU
 70
     6
  9
$SURFV
 70
     6
  9
$UCSNAME
  2

  9
$UCSORG
 10
0.0
 20
0.0
 30
0.0
  9
$UCSXDIR
 10
1.0
 20
0.0
 30
0.0
  9
$UCSYDIR
 10
0.0
 20
1.0
 30
0.0
  9
$PUCSNAME
  2

  9
$PUCSORG
 10
0.0
 20
0.0
 30
0.0
  9
$PUCSXDIR
 10
1.0
 20
0.0
 30
0.0
  9
$PUCSYDIR
 10
0.0
 20
1.0
 30
0.0
  9
$USERI1
 70
     0
  9
$USERI2
 70
     0
  9
$USERI3
 70
     0
  9
$USERI4
 70
     0
  9
$USERI5
 70
     0
  9
$USERR1
 40
0.0
  9
$USERR2
 40
0.0
  9
$USERR3
 40
0.0
  9
$USERR4
 40
0.0
  9
$USERR5
 40
0.0
  9
$WORLDVIEW
 70
     1
  9
$SHADEDGE
 70
     3
  9
$SHADEDIF
 70
    70
  9
$TILEMODE
 70
     1
  9
$MAXACTVP
 70
    64
  9
$PLIMCHECK
 70
     0
  9
$PEXTMIN
 10
1.000000000000000E+20
 20
1.000000000000000E+20
 30
1.000000000000000E+20
  9
$PEXTMAX
 10
-1.000000000000000E+20
 20
-1.000000000000000E+20
 30
-1.000000000000000E+20
  9
$PLIMMIN
 10
0.0
 20
0.0
  9
$PLIMMAX
 10
12.0
 20
9.0
  9
$UNITMODE
 70
     0
  9
$VISRETAIN
 70
     1
  9
$PLINEGEN
 70
     0
  9
$PSLTSCALE
 70
     1
  0
ENDSEC
  0
SECTION
  2
TABLES
  0
TABLE
  2
VPORT
 70
     1
  0
VPORT
  2
*ACTIVE
 70
     0
 10
0.0
 20
0.0
 11
1.0
 21
1.0
 12
10.42990654205607
 22
4.5
 13
0.0
 23
0.0
 14
0.5
 24
0.5
 15
0.5
 25
0.5
 16
0.0
 26
0.0
 36
1.0
 17
0.0
 27
0.0
 37
0.0
 40
9.0
 41
1.972972972850329
 42
50.0
 43
0.0
 44
0.0
 50
0.0
 51
0.0
 71
     0
 72
   100
 73
     1
 74
     3
 75
     0
 76
     0
 77
     0
 78
     0
  0
ENDTAB
  0
TABLE
  2
LTYPE
 70
     1
  0
LTYPE
  2
CONTINUOUS
 70
     0
  3
Solid line
 72
    65
 73
     0
 40
0.0
  0
ENDTAB
  0
TABLE
  2
LAYER
 70
     2
  0
LAYER
  2
0
 70
     0
 62
     7
  6
CONTINUOUS
  0
LAYER
  2
_ANNOTATION$DIMS_AND_ANNO
 70
     0
 62
   150
  6
CONTINUOUS
  0
ENDTAB
  0
TABLE
  2
STYLE
 70
     1
  0
STYLE
  2
STANDARD
 70
     0
 40
0.0
 41
1.0
 50
0.0
 71
     0
 42
0.2
  3
txt
  4

  0
ENDTAB
  0
TABLE
  2
VIEW
 70
     0
  0
ENDTAB
  0
TABLE
  2
UCS
 70
     0
  0
ENDTAB
  0
TABLE
  2
APPID
 70
     1
  0
APPID
  2
ACAD
 70
     0
  0
ENDTAB
  0
TABLE
  2
DIMSTYLE
 70
     1
  0
DIMSTYLE
  2
STANDARD_ACAD
 70
     0
  3

  4

  5

  6

  7

 40
1.0
 41
0.18
 42
0.0625
 43
0.38
 44
0.18
 45
0.0
 46
0.0
 47
0.0
 48
0.0
140
0.18
141
0.09
142
0.0
143
25.4
144
1.0
145
0.0
146
1.0
147
0.09
 71
     0
 72
     0
 73
     1
 74
     1
 75
     0
 76
     0
 77
     0
 78
     0
170
     0
171
     2
172
     0
173
     0
174
     0
175
     0
176
     0
177
     0
178
     0
  0
ENDTAB
  0
ENDSEC
  0
SECTION
  2
BLOCKS
  0
BLOCK
  8
0
  2
$MODEL_SPACE
 70
     0
 10
0.0
 20
0.0
 30
0.0
  3
$MODEL_SPACE
  1

  0
ENDBLK
  5
21
  8
0
  0
BLOCK
 67
     1
  8
0
  2
$PAPER_SPACE
 70
     0
 10
0.0
 20
0.0
 30
0.0
  3
$PAPER_SPACE
  1

  0
ENDBLK
  5
1D
 67
     1
  8
0
  0
ENDSEC
  0
SECTION
  2
ENTITIES
  0
POLYLINE
  5
6F
  8
_ANNOTATION$DIMS_AND_ANNO
 66
     1
 10
0.0
 20
0.0
 30
0.0
 70
     1
  0
VERTEX
  5
70
  8
_ANNOTATION$DIMS_AND_ANNO
 10
-243.646139106415
 20
-729.7161697860237
 30
0.0
  0
VERTEX
  5
71
  8
_ANNOTATION$DIMS_AND_ANNO
 10
-243.6767307721194
 20
-730.0658341250538
 30
0.0
  0
VERTEX
  5
72
  8
_ANNOTATION$DIMS_AND_ANNO
 10
-243.7943915632325
 20
-730.0555401396899
 30
0.0
  0
VERTEX
  5
73
  8
_ANNOTATION$DIMS_AND_ANNO
 10
-243.7637998975281
 20
-729.7058758006598
 30
0.0
  0
SEQEND
  5
74
  8
_ANNOTATION$DIMS_AND_ANNO
  0
POLYLINE
  5
75
  8
_ANNOTATION$DIMS_AND_ANNO
 66
     1
 10
0.0
 20
0.0
 30
0.0
 70
     1
  0
VERTEX
  5
76
  8
_ANNOTATION$DIMS_AND_ANNO
 10
-242.3942281489854
 20
-730.1780385655203
 30
0.0
  0
VERTEX
  5
77
  8
_ANNOTATION$DIMS_AND_ANNO
 10
-242.363636483281
 20
-729.8283742264902
 30
0.0
  0
VERTEX
  5
78
  8
_ANNOTATION$DIMS_AND_ANNO
 10
-242.2459756921679
 20
-729.838668211854
 30
0.0
  0
VERTEX
  5
79
  8
_ANNOTATION$DIMS_AND_ANNO
 10
-242.2765673578722
 20
-730.1883325508843
 30
0.0
  0
SEQEND
  5
7A
  8
_ANNOTATION$DIMS_AND_ANNO
  0
POLYLINE
  5
7B
  8
_ANNOTATION$DIMS_AND_ANNO
 66
     1
 10
0.0
 20
0.0
 30
0.0
 70
     1
  0
VERTEX
  5
7C
  8
_ANNOTATION$DIMS_AND_ANNO
 10
-254.6598685105549
 20
-729.7161697860236
 30
0.0
  0
VERTEX
  5
7D
  8
_ANNOTATION$DIMS_AND_ANNO
 10
-254.5422077194417
 20
-729.7058758006597
 30
0.0
  0
VERTEX
  5
7E
  8
_ANNOTATION$DIMS_AND_ANNO
 10
-254.5116160537372
 20
-730.0555401396898
 30
0.0
  0
VERTEX
  5
7F
  8
_ANNOTATION$DIMS_AND_ANNO
 10
-254.6292768448504
 20
-730.0658341250537
 30
0.0
  0
SEQEND
  5
80
  8
_ANNOTATION$DIMS_AND_ANNO
  0
POLYLINE
  5
81
  8
_ANNOTATION$DIMS_AND_ANNO
 66
     1
 10
0.0
 20
0.0
 30
0.0
 70
     1
  0
VERTEX
  5
82
  8
_ANNOTATION$DIMS_AND_ANNO
 10
-255.9117794679842
 20
-730.1780385655201
 30
0.0
  0
VERTEX
  5
83
  8
_ANNOTATION$DIMS_AND_ANNO
 10
-256.0294402590975
 20
-730.1883325508841
 30
0.0
  0
VERTEX
  5
84
  8
_ANNOTATION$DIMS_AND_ANNO
 10
-256.060031924802
 20
-729.8386682118538
 30
0.0
  0
VERTEX
  5
85
  8
_ANNOTATION$DIMS_AND_ANNO
 10
-255.9423711336887
 20
-729.8283742264899
 30
0.0
  0
SEQEND
  5
86
  8
_ANNOTATION$DIMS_AND_ANNO
  0
POLYLINE
  5
87
  8
_ANNOTATION$DIMS_AND_ANNO
 66
     1
 10
0.0
 20
0.0
 30
0.0
 70
     1
  0
VERTEX
  5
88
  8
_ANNOTATION$DIMS_AND_ANNO
 10
-241.0129079816008
 20
-730.3435386434039
 30
0.0
 42
-0.4142135623744164
  0
VERTEX
  5
89
  8
_ANNOTATION$DIMS_AND_ANNO
 10
-241.0486969168505
 20
-730.3008870512449
 30
0.0
  0
VERTEX
  5
8A
  8
_ANNOTATION$DIMS_AND_ANNO
 10
-241.0172144782792
 20
-729.9410411317571
 30
0.0
 42
-0.4142135623704418
  0
VERTEX
  5
8B
  8
_ANNOTATION$DIMS_AND_ANNO
 10
-240.9745628861203
 20
-729.9052521965074
 30
0.0
  0
VERTEX
  5
8C
  8
_ANNOTATION$DIMS_AND_ANNO
 10
-240.8569020950071
 20
-729.9155461818713
 30
0.0
 42
-0.4142135623906255
  0
VERTEX
  5
8D
  8
_ANNOTATION$DIMS_AND_ANNO
 10
-240.8211131597579
 20
-729.9581977740303
 30
0.0
  0
VERTEX
  5
8E
  8
_ANNOTATION$DIMS_AND_ANNO
 10
-240.8525955983286
 20
-730.3180436935181
 30
0.0
 42
-0.4142135623721386
  0
VERTEX
  5
8F
  8
_ANNOTATION$DIMS_AND_ANNO
 10
-240.8952471904876
 20
-730.3538326287679
 30
0.0
  0
SEQEND
  5
90
  8
_ANNOTATION$DIMS_AND_ANNO
  0
POLYLINE
  5
91
  8
_ANNOTATION$DIMS_AND_ANNO
 66
     1
 10
0.0
 20
0.0
 30
0.0
 70
     1
  0
VERTEX
  5
92
  8
_ANNOTATION$DIMS_AND_ANNO
 10
-241.5110053306467
 20
-730.2999607720301
 30
0.0
 42
-0.4142135623650564
  0
VERTEX
  5
93
  8
_ANNOTATION$DIMS_AND_ANNO
 10
-241.5467942658964
 20
-730.2573091798711
 30
0.0
  0
VERTEX
  5
94
  8
_ANNOTATION$DIMS_AND_ANNO
 10
-241.5153118273252
 20
-729.8974632603832
 30
0.0
 42
-0.4142135623674907
  0
VERTEX
  5
95
  8
_ANNOTATION$DIMS_AND_ANNO
 10
-241.4726602351662
 20
-729.8616743251334
 30
0.0
  0
VERTEX
  5
96
  8
_ANNOTATION$DIMS_AND_ANNO
 10
-241.354999444053
 20
-729.8719683104974
 30
0.0
 42
-0.4142135623770783
  0
VERTEX
  5
97
  8
_ANNOTATION$DIMS_AND_ANNO
 10
-241.3192105088032
 20
-729.9146199026563
 30
0.0
  0
VERTEX
  5
98
  8
_ANNOTATION$DIMS_AND_ANNO
 10
-241.3506929473745
 20
-730.2744658221443
 30
0.0
 42
-0.4142135623825023
  0
VERTEX
  5
99
  8
_ANNOTATION$DIMS_AND_ANNO
 10
-241.3933445395335
 20
-730.310254757394
 30
0.0
  0
SEQEND
  5
9A
  8
_ANNOTATION$DIMS_AND_ANNO
  0
POLYLINE
  5
9B
  8
_ANNOTATION$DIMS_AND_ANNO
 66
     1
 10
0.0
 20
0.0
 30
0.0
 70
     1
  0
VERTEX
  5
9C
  8
_ANNOTATION$DIMS_AND_ANNO
 10
-257.2930996353694
 20
-730.3435386434037
 30
0.0
  0
VERTEX
  5
9D
  8
_ANNOTATION$DIMS_AND_ANNO
 10
-257.4107604264826
 20
-730.3538326287677
 30
0.0
 42
-0.4142135623732426
  0
VERTEX
  5
9E
  8
_ANNOTATION$DIMS_AND_ANNO
 10
-257.4534120186415
 20
-730.3180436935179
 30
0.0
  0
VERTEX
  5
9F
  8
_ANNOTATION$DIMS_AND_ANNO
 10
-257.484894457213
 20
-729.95819777403
 30
0.0
 42
-0.414213562371599
  0
VERTEX
  5
A0
  8
_ANNOTATION$DIMS_AND_ANNO
 10
-257.4491055219631
 20
-729.9155461818709
 30
0.0
  0
VERTEX
  5
A1
  8
_ANNOTATION$DIMS_AND_ANNO
 10
-257.3314447308499
 20
-729.905252196507
 30
0.0
 42
-0.4142135623794301
  0
VERTEX
  5
A2
  8
_ANNOTATION$DIMS_AND_ANNO
 10
-257.2887931386911
 20
-729.941041131757
 30
0.0
  0
VERTEX
  5
A3
  8
_ANNOTATION$DIMS_AND_ANNO
 10
-257.2573107001197
 20
-730.3008870512447
 30
0.0
 42
-0.4142135623806245
  0
SEQEND
  5
A4
  8
_ANNOTATION$DIMS_AND_ANNO
  0
POLYLINE
  5
A5
  8
_ANNOTATION$DIMS_AND_ANNO
 66
     1
 10
0.0
 20
0.0
 30
0.0
 70
     1
  0
VERTEX
  5
A6
  8
_ANNOTATION$DIMS_AND_ANNO
 10
-256.7950022863236
 20
-730.2999607720299
 30
0.0
  0
VERTEX
  5
A7
  8
_ANNOTATION$DIMS_AND_ANNO
 10
-256.9126630774368
 20
-730.3102547573939
 30
0.0
 42
-0.4142135623874972
  0
VERTEX
  5
A8
  8
_ANNOTATION$DIMS_AND_ANNO
 10
-256.9553146695957
 20
-730.2744658221441
 30
0.0
  0
VERTEX
  5
A9
  8
_ANNOTATION$DIMS_AND_ANNO
 10
-256.9867971081671
 20
-729.9146199026561
 30
0.0
 42
-0.4142135623820942
  0
VERTEX
  5
AA
  8
_ANNOTATION$DIMS_AND_ANNO
 10
-256.9510081729173
 20
-729.8719683104973
 30
0.0
  0
VERTEX
  5
AB
  8
_ANNOTATION$DIMS_AND_ANNO
 10
-256.8333473818041
 20
-729.8616743251332
 30
0.0
 42
-0.4142135623839543
  0
VERTEX
  5
AC
  8
_ANNOTATION$DIMS_AND_ANNO
 10
-256.7906957896451
 20
-729.8974632603831
 30
0.0
  0
VERTEX
  5
AD
  8
_ANNOTATION$DIMS_AND_ANNO
 10
-256.7592133510737
 20
-730.2573091798708
 30
0.0
 42
-0.4142135623664573
  0
SEQEND
  5
AE
  8
_ANNOTATION$DIMS_AND_ANNO
  0
POLYLINE
  5
AF
  8
_ANNOTATION$DIMS_AND_ANNO
 66
     1
 10
0.0
 20
0.0
 30
0.0
 70
     1
  0
VERTEX
  5
B0
  8
_ANNOTATION$DIMS_AND_ANNO
 10
-253.8857144676575
 20
-728.9462681070861
 30
0.0
  0
VERTEX
  5
B1
  8
_ANNOTATION$DIMS_AND_ANNO
 10
-257.5269003336683
 20
-729.2648305921524
 30
0.0
 42
0.414213562373011
  0
VERTEX
  5
B2
  8
_ANNOTATION$DIMS_AND_ANNO
 10
-257.884789686166
 20
-729.6913465137429
 30
0.0
  0
VERTEX
  5
B3
  8
_ANNOTATION$DIMS_AND_ANNO
 10
-257.8008937054503
 20
-730.6502819613154
 30
0.0
 42
0.4142135623723601
  0
VERTEX
  5
B4
  8
_ANNOTATION$DIMS_AND_ANNO
 10
-257.3743777838593
 20
-731.0081713138135
 30
0.0
  0
VERTEX
  5
B5
  8
_ANNOTATION$DIMS_AND_ANNO
 10
-251.8461354461903
 20
-730.6876709376628
 30
0.0
 42
-0.0142780111746889
  0
VERTEX
  5
B6
  8
_ANNOTATION$DIMS_AND_ANNO
 10
-246.4598721707776
 20
-730.6876709376628
 30
0.0
  0
VERTEX
  5
B7
  8
_ANNOTATION$DIMS_AND_ANNO
 10
-240.9316298331109
 20
-731.0081713138136
 30
0.0
 42
0.4142135623723124
  0
VERTEX
  5
B8
  8
_ANNOTATION$DIMS_AND_ANNO
 10
-240.5051139115205
 20
-730.6502819613158
 30
0.0
  0
VERTEX
  5
B9
  8
_ANNOTATION$DIMS_AND_ANNO
 10
-240.4212179308047
 20
-729.6913465137433
 30
0.0
 42
0.4142135623736066
  0
VERTEX
  5
BA
  8
_ANNOTATION$DIMS_AND_ANNO
 10
-240.7791072833025
 20
-729.264830592153
 30
0.0
  0
VERTEX
  5
BB
  8
_ANNOTATION$DIMS_AND_ANNO
 10
-244.4257403832351
 20
-728.9457915358704
 30
0.0
 42
-0.9999999999917665
  0
VERTEX
  5
BC
  8
_ANNOTATION$DIMS_AND_ANNO
 10
-244.4202931493131
 20
-728.8835293672397
 30
0.0
  0
VERTEX
  5
BD
  8
_ANNOTATION$DIMS_AND_ANNO
 10
-243.9503832953529
 20
-728.9246411523403
 30
0.0
 42
0.4400105308902629
  0
VERTEX
  5
BE
  8
_ANNOTATION$DIMS_AND_ANNO
 10
-243.6785943596662
 20
-728.6755924778174
 30
0.0
  0
VERTEX
  5
BF
  8
_ANNOTATION$DIMS_AND_ANNO
 10
-243.678594359666
 20
-721.9920360998219
 30
0.0
 42
0.3888787318531592
  0
VERTEX
  5
C0
  8
_ANNOTATION$DIMS_AND_ANNO
 10
-244.5914386169184
 20
-720.9958414017296
 30
0.0
  0
VERTEX
  5
C1
  8
_ANNOTATION$DIMS_AND_ANNO
 10
-249.0658480657374
 20
-720.6043812989852
 30
0.0
 42
0.0436609429084831
  0
VERTEX
  5
C2
  8
_ANNOTATION$DIMS_AND_ANNO
 10
-249.2401595512324
 20
-720.6043812989857
 30
0.0
  0
VERTEX
  5
C3
  8
_ANNOTATION$DIMS_AND_ANNO
 10
-253.7145690000512
 20
-720.9958414017298
 30
0.0
 42
0.3888787318532197
  0
VERTEX
  5
C4
  8
_ANNOTATION$DIMS_AND_ANNO
 10
-254.6274132573037
 20
-721.9920360998216
 30
0.0
  0
VERTEX
  5
C5
  8
_ANNOTATION$DIMS_AND_ANNO
 10
-254.627413257304
 20
-728.6755924778172
 30
0.0
 42
0.4400105308903443
  0
VERTEX
  5
C6
  8
_ANNOTATION$DIMS_AND_ANNO
 10
-254.355624321617
 20
-728.92464115234
 30
0.0
  0
VERTEX
  5
C7
  8
_ANNOTATION$DIMS_AND_ANNO
 10
-253.8911617015806
 20
-728.8840059384552
 30
0.0
 42
-1.091308501129232
  0
SEQEND
  5
C8
  8
_ANNOTATION$DIMS_AND_ANNO
  0
POLYLINE
  5
C9
  8
_ANNOTATION$DIMS_AND_ANNO
 62
     3
 66
     1
 10
0.0
 20
0.0
 30
0.0
 70
     1
  0
VERTEX
  5
CA
  8
_ANNOTATION$DIMS_AND_ANNO
 62
     3
 10
-269.8335964040754
 20
-743.2422133877232
 30
0.0
 42
-0.4142135623738789
  0
VERTEX
  5
CB
  8
_ANNOTATION$DIMS_AND_ANNO
 62
     3
 10
-270.2085964040752
 20
-742.8672133877232
 30
0.0
  0
VERTEX
  5
CC
  8
_ANNOTATION$DIMS_AND_ANNO
 62
     3
 10
-270.2085964040754
 20
-741.8672133876665
 30
0.0
 42
-0.4142135623723328
  0
VERTEX
  5
CD
  8
_ANNOTATION$DIMS_AND_ANNO
 62
     3
 10
-269.8335964040754
 20
-741.4922133876667
 30
0.0
  0
VERTEX
  5
CE
  8
_ANNOTATION$DIMS_AND_ANNO
 62
     3
 10
-258.4522343401646
 20
-741.4922133876667
 30
0.0
 42
-0.4142135623720143
  0
VERTEX
  5
CF
  8
_ANNOTATION$DIMS_AND_ANNO
 62
     3
 10
-258.077234340165
 20
-741.8672133876667
 30
0.0
  0
VERTEX
  5
D0
  8
_ANNOTATION$DIMS_AND_ANNO
 62
     3
 10
-258.0772343401647
 20
-742.8672133877228
 30
0.0
 42
-0.4142135623726412
  0
VERTEX
  5
D1
  8
_ANNOTATION$DIMS_AND_ANNO
 62
     3
 10
-258.4522343401646
 20
-743.2422133877224
 30
0.0
  0
SEQEND
  5
D2
  8
_ANNOTATION$DIMS_AND_ANNO
 62
     3
  0
POLYLINE
  5
D3
  8
_ANNOTATION$DIMS_AND_ANNO
 62
     3
 66
     1
 10
0.0
 20
0.0
 30
0.0
 70
     1
  0
VERTEX
  5
D4
  8
_ANNOTATION$DIMS_AND_ANNO
 62
     3
 10
-260.0920769353054
 20
-742.1572133876607
 30
0.0
 42
0.2401375415895946
  0
VERTEX
  5
D5
  8
_ANNOTATION$DIMS_AND_ANNO
 62
     3
 10
-260.1173627992696
 20
-742.1701007194563
 30
0.0
  0
VERTEX
  5
D6
  8
_ANNOTATION$DIMS_AND_ANNO
 62
     3
 10
-260.2431955375329
 20
-742.3433756197344
 30
0.0
 42
0.1583274682737724
  0
VERTEX
  5
D7
  8
_ANNOTATION$DIMS_AND_ANNO
 62
     3
 10
-260.2491596735685
 20
-742.3617382879389
 30
0.0
  0
VERTEX
  5
D8
  8
_ANNOTATION$DIMS_AND_ANNO
 62
     3
 10
-260.2491596735685
 20
-742.3726884873822
 30
0.0
 42
0.1583274682946728
  0
VERTEX
  5
D9
  8
_ANNOTATION$DIMS_AND_ANNO
 62
     3
 10
-260.2431955375326
 20
-742.3910511555866
 30
0.0
  0
VERTEX
  5
DA
  8
_ANNOTATION$DIMS_AND_ANNO
 62
     3
 10
-260.1173627992696
 20
-742.564326055865
 30
0.0
 42
0.2401375415986207
  0
VERTEX
  5
DB
  8
_ANNOTATION$DIMS_AND_ANNO
 62
     3
 10
-260.0920769353055
 20
-742.5772133876602
 30
0.0
  0
VERTEX
  5
DC
  8
_ANNOTATION$DIMS_AND_ANNO
 62
     3
 10
-260.0377539813096
 20
-742.5772133876605
 30
0.0
  0
VERTEX
  5
DD
  8
_ANNOTATION$DIMS_AND_ANNO
 62
     3
 10
-260.0377539813096
 20
-742.5246937026211
 30
0.0
  0
VERTEX
  5
DE
  8
_ANNOTATION$DIMS_AND_ANNO
 62
     3
 10
-259.8102382067658
 20
-742.5246937026212
 30
0.0
  0
VERTEX
  5
DF
  8
_ANNOTATION$DIMS_AND_ANNO
 62
     3
 10
-259.8102382067659
 20
-742.5636937026211
 30
0.0
  0
VERTEX
  5
E0
  8
_ANNOTATION$DIMS_AND_ANNO
 62
     3
 10
-259.9987539813097
 20
-742.5636937026211
 30
0.0
  0
VERTEX
  5
E1
  8
_ANNOTATION$DIMS_AND_ANNO
 62
     3
 10
-259.9987539813096
 20
-742.6162133876605
 30
0.0
  0
VERTEX
  5
E2
  8
_ANNOTATION$DIMS_AND_ANNO
 62
     3
 10
-260.0920769353054
 20
-742.6162133876605
 30
0.0
 42
-0.2401375415915439
  0
VERTEX
  5
E3
  8
_ANNOTATION$DIMS_AND_ANNO
 62
     3
 10
-260.148919557497
 20
-742.5872426657844
 30
0.0
  0
VERTEX
  5
E4
  8
_ANNOTATION$DIMS_AND_ANNO
 62
     3
 10
-260.2747522957599
 20
-742.4139677655054
 30
0.0
 42
-0.1583274682921387
  0
VERTEX
  5
E5
  8
_ANNOTATION$DIMS_AND_ANNO
 62
     3
 10
-260.2881596735684
 20
-742.3726884873821
 30
0.0
  0
VERTEX
  5
E6
  8
_ANNOTATION$DIMS_AND_ANNO
 62
     3
 10
-260.2881596735685
 20
-742.3617382879388
 30
0.0
 42
-0.158327468278846
  0
VERTEX
  5
E7
  8
_ANNOTATION$DIMS_AND_ANNO
 62
     3
 10
-260.27475229576
 20
-742.3204590098155
 30
0.0
  0
VERTEX
  5
E8
  8
_ANNOTATION$DIMS_AND_ANNO
 62
     3
 10
-260.1489195574969
 20
-742.147184109537
 30
0.0
 42
-0.2401375416030136
  0
VERTEX
  5
E9
  8
_ANNOTATION$DIMS_AND_ANNO
 62
     3
 10
-260.0920769353053
 20
-742.1182133876607
 30
0.0
  0
VERTEX
  5
EA
  8
_ANNOTATION$DIMS_AND_ANNO
 62
     3
 10
-259.9987539813096
 20
-742.1182133876605
 30
0.0
  0
VERTEX
  5
EB
  8
_ANNOTATION$DIMS_AND_ANNO
 62
     3
 10
-259.9987539813097
 20
-742.1707330726999
 30
0.0
  0
VERTEX
  5
EC
  8
_ANNOTATION$DIMS_AND_ANNO
 62
     3
 10
-259.8102382067658
 20
-742.1707330727
 30
0.0
  0
VERTEX
  5
ED
  8
_ANNOTATION$DIMS_AND_ANNO
 62
     3
 10
-259.8102382067658
 20
-742.2097330726999
 30
0.0
  0
VERTEX
  5
EE
  8
_ANNOTATION$DIMS_AND_ANNO
 62
     3
 10
-260.0377539813096
 20
-742.2097330726999
 30
0.0
  0
VERTEX
  5
EF
  8
_ANNOTATION$DIMS_AND_ANNO
 62
     3
 10
-260.0377539813096
 20
-742.1572133876606
 30
0.0
  0
SEQEND
  5
F0
  8
_ANNOTATION$DIMS_AND_ANNO
 62
     3
  0
POLYLINE
  5
F1
  8
_ANNOTATION$DIMS_AND_ANNO
 62
     3
 66
     1
 10
0.0
 20
0.0
 30
0.0
 70
     1
  0
VERTEX
  5
F2
  8
_ANNOTATION$DIMS_AND_ANNO
 62
     3
 10
-258.6865651242818
 20
-742.1572133876606
 30
0.0
 42
0.2401375415870096
  0
VERTEX
  5
F3
  8
_ANNOTATION$DIMS_AND_ANNO
 62
     3
 10
-258.7118509882461
 20
-742.1701007194562
 30
0.0
  0
VERTEX
  5
F4
  8
_ANNOTATION$DIMS_AND_ANNO
 62
     3
 10
-258.8376837265092
 20
-742.3433756197345
 30
0.0
 42
0.1583274682891198
  0
VERTEX
  5
F5
  8
_ANNOTATION$DIMS_AND_ANNO
 62
     3
 10
-258.8436478625448
 20
-742.3617382879389
 30
0.0
  0
VERTEX
  5
F6
  8
_ANNOTATION$DIMS_AND_ANNO
 62
     3
 10
-258.8436478625449
 20
-742.3726884873822
 30
0.0
 42
0.1583274682994105
  0
VERTEX
  5
F7
  8
_ANNOTATION$DIMS_AND_ANNO
 62
     3
 10
-258.8376837265091
 20
-742.3910511555865
 30
0.0
  0
VERTEX
  5
F8
  8
_ANNOTATION$DIMS_AND_ANNO
 62
     3
 10
-258.711850988246
 20
-742.5643260558651
 30
0.0
 42
0.2401375415910567
  0
VERTEX
  5
F9
  8
_ANNOTATION$DIMS_AND_ANNO
 62
     3
 10
-258.6865651242817
 20
-742.5772133876603
 30
0.0
  0
VERTEX
  5
FA
  8
_ANNOTATION$DIMS_AND_ANNO
 62
     3
 10
-258.632242170286
 20
-742.5772133876605
 30
0.0
  0
VERTEX
  5
FB
  8
_ANNOTATION$DIMS_AND_ANNO
 62
     3
 10
-258.6322421702861
 20
-742.5246937026211
 30
0.0
  0
VERTEX
  5
FC
  8
_ANNOTATION$DIMS_AND_ANNO
 62
     3
 10
-258.4047263957423
 20
-742.5246937026212
 30
0.0
  0
VERTEX
  5
FD
  8
_ANNOTATION$DIMS_AND_ANNO
 62
     3
 10
-258.4047263957424
 20
-742.5636937026212
 30
0.0
  0
VERTEX
  5
FE
  8
_ANNOTATION$DIMS_AND_ANNO
 62
     3
 10
-258.593242170286
 20
-742.5636937026212
 30
0.0
  0
VERTEX
  5
FF
  8
_ANNOTATION$DIMS_AND_ANNO
 62
     3
 10
-258.593242170286
 20
-742.6162133876605
 30
0.0
  0
VERTEX
  5
100
  8
_ANNOTATION$DIMS_AND_ANNO
 62
     3
 10
-258.6865651242817
 20
-742.6162133876605
 30
0.0
 42
-0.2401375415936965
  0
VERTEX
  5
101
  8
_ANNOTATION$DIMS_AND_ANNO
 62
     3
 10
-258.7434077464732
 20
-742.5872426657838
 30
0.0
  0
VERTEX
  5
102
  8
_ANNOTATION$DIMS_AND_ANNO
 62
     3
 10
-258.8692404847365
 20
-742.4139677655055
 30
0.0
 42
-0.158327468293288
  0
VERTEX
  5
103
  8
_ANNOTATION$DIMS_AND_ANNO
 62
     3
 10
-258.882647862545
 20
-742.3726884873821
 30
0.0
  0
VERTEX
  5
104
  8
_ANNOTATION$DIMS_AND_ANNO
 62
     3
 10
-258.8826478625449
 20
-742.3617382879388
 30
0.0
 42
-0.1583274682802254
  0
VERTEX
  5
105
  8
_ANNOTATION$DIMS_AND_ANNO
 62
     3
 10
-258.8692404847367
 20
-742.3204590098157
 30
0.0
  0
VERTEX
  5
106
  8
_ANNOTATION$DIMS_AND_ANNO
 62
     3
 10
-258.7434077464733
 20
-742.147184109537
 30
0.0
 42
-0.2401375416055677
  0
VERTEX
  5
107
  8
_ANNOTATION$DIMS_AND_ANNO
 62
     3
 10
-258.6865651242818
 20
-742.1182133876605
 30
0.0
  0
VERTEX
  5
108
  8
_ANNOTATION$DIMS_AND_ANNO
 62
     3
 10
-258.593242170286
 20
-742.1182133876605
 30
0.0
  0
VERTEX
  5
109
  8
_ANNOTATION$DIMS_AND_ANNO
 62
     3
 10
-258.5932421702861
 20
-742.1707330726999
 30
0.0
  0
VERTEX
  5
10A
  8
_ANNOTATION$DIMS_AND_ANNO
 62
     3
 10
-258.4047263957423
 20
-742.1707330727
 30
0.0
  0
VERTEX
  5
10B
  8
_ANNOTATION$DIMS_AND_ANNO
 62
     3
 10
-258.4047263957423
 20
-742.2097330726999
 30
0.0
  0
VERTEX
  5
10C
  8
_ANNOTATION$DIMS_AND_ANNO
 62
     3
 10
-258.632242170286
 20
-742.2097330726999
 30
0.0
  0
VERTEX
  5
10D
  8
_ANNOTATION$DIMS_AND_ANNO
 62
     3
 10
-258.6322421702861
 20
-742.1572133876605
 30
0.0
  0
SEQEND
  5
10E
  8
_ANNOTATION$DIMS_AND_ANNO
 62
     3
  0
POLYLINE
  5
10F
  8
_ANNOTATION$DIMS_AND_ANNO
 62
     3
 66
     1
 10
0.0
 20
0.0
 30
0.0
 70
     1
  0
VERTEX
  5
110
  8
_ANNOTATION$DIMS_AND_ANNO
 62
     3
 10
-268.1937538089349
 20
-742.1572133876602
 30
0.0
 42
-0.2401375415997661
  0
VERTEX
  5
111
  8
_ANNOTATION$DIMS_AND_ANNO
 62
     3
 10
-268.1684679449706
 20
-742.1701007194557
 30
0.0
  0
VERTEX
  5
112
  8
_ANNOTATION$DIMS_AND_ANNO
 62
     3
 10
-268.0426352067075
 20
-742.3433756197342
 30
0.0
 42
-0.1583274682771968
  0
VERTEX
  5
113
  8
_ANNOTATION$DIMS_AND_ANNO
 62
     3
 10
-268.0366710706717
 20
-742.3617382879386
 30
0.0
  0
VERTEX
  5
114
  8
_ANNOTATION$DIMS_AND_ANNO
 62
     3
 10
-268.0366710706719
 20
-742.372688487382
 30
0.0
 42
-0.1583274682930364
  0
VERTEX
  5
115
  8
_ANNOTATION$DIMS_AND_ANNO
 62
     3
 10
-268.0426352067075
 20
-742.3910511555861
 30
0.0
  0
VERTEX
  5
116
  8
_ANNOTATION$DIMS_AND_ANNO
 62
     3
 10
-268.1684679449707
 20
-742.5643260558646
 30
0.0
 42
-0.2401375416010098
  0
VERTEX
  5
117
  8
_ANNOTATION$DIMS_AND_ANNO
 62
     3
 10
-268.1937538089348
 20
-742.5772133876602
 30
0.0
  0
VERTEX
  5
118
  8
_ANNOTATION$DIMS_AND_ANNO
 62
     3
 10
-268.2480767629306
 20
-742.5772133876601
 30
0.0
  0
VERTEX
  5
119
  8
_ANNOTATION$DIMS_AND_ANNO
 62
     3
 10
-268.2480767629307
 20
-742.5246937026209
 30
0.0
  0
VERTEX
  5
11A
  8
_ANNOTATION$DIMS_AND_ANNO
 62
     3
 10
-268.4755925374743
 20
-742.5246937026209
 30
0.0
  0
VERTEX
  5
11B
  8
_ANNOTATION$DIMS_AND_ANNO
 62
     3
 10
-268.4755925374743
 20
-742.5636937026209
 30
0.0
  0
VERTEX
  5
11C
  8
_ANNOTATION$DIMS_AND_ANNO
 62
     3
 10
-268.2870767629307
 20
-742.5636937026209
 30
0.0
  0
VERTEX
  5
11D
  8
_ANNOTATION$DIMS_AND_ANNO
 62
     3
 10
-268.2870767629307
 20
-742.6162133876601
 30
0.0
  0
VERTEX
  5
11E
  8
_ANNOTATION$DIMS_AND_ANNO
 62
     3
 10
-268.1937538089349
 20
-742.6162133876602
 30
0.0
 42
0.2401375415985939
  0
VERTEX
  5
11F
  8
_ANNOTATION$DIMS_AND_ANNO
 62
     3
 10
-268.1369111867435
 20
-742.5872426657836
 30
0.0
  0
VERTEX
  5
120
  8
_ANNOTATION$DIMS_AND_ANNO
 62
     3
 10
-268.0110784484802
 20
-742.4139677655053
 30
0.0
 42
0.1583274682817336
  0
VERTEX
  5
121
  8
_ANNOTATION$DIMS_AND_ANNO
 62
     3
 10
-267.9976710706718
 20
-742.3726884873818
 30
0.0
  0
VERTEX
  5
122
  8
_ANNOTATION$DIMS_AND_ANNO
 62
     3
 10
-267.9976710706719
 20
-742.3617382879386
 30
0.0
 42
0.1583274682864196
  0
VERTEX
  5
123
  8
_ANNOTATION$DIMS_AND_ANNO
 62
     3
 10
-268.0110784484801
 20
-742.3204590098153
 30
0.0
  0
VERTEX
  5
124
  8
_ANNOTATION$DIMS_AND_ANNO
 62
     3
 10
-268.1369111867432
 20
-742.1471841095365
 30
0.0
 42
0.2401375415987566
  0
VERTEX
  5
125
  8
_ANNOTATION$DIMS_AND_ANNO
 62
     3
 10
-268.1937538089348
 20
-742.1182133876601
 30
0.0
  0
VERTEX
  5
126
  8
_ANNOTATION$DIMS_AND_ANNO
 62
     3
 10
-268.2870767629307
 20
-742.1182133876603
 30
0.0
  0
VERTEX
  5
127
  8
_ANNOTATION$DIMS_AND_ANNO
 62
     3
 10
-268.2870767629307
 20
-742.1707330726995
 30
0.0
  0
VERTEX
  5
128
  8
_ANNOTATION$DIMS_AND_ANNO
 62
     3
 10
-268.4755925374743
 20
-742.1707330726995
 30
0.0
  0
VERTEX
  5
129
  8
_ANNOTATION$DIMS_AND_ANNO
 62
     3
 10
-268.4755925374743
 20
-742.2097330726995
 30
0.0
  0
VERTEX
  5
12A
  8
_ANNOTATION$DIMS_AND_ANNO
 62
     3
 10
-268.2480767629306
 20
-742.2097330726995
 30
0.0
  0
VERTEX
  5
12B
  8
_ANNOTATION$DIMS_AND_ANNO
 62
     3
 10
-268.2480767629306
 20
-742.1572133876602
 30
0.0
  0
SEQEND
  5
12C
  8
_ANNOTATION$DIMS_AND_ANNO
 62
     3
  0
POLYLINE
  5
12D
  8
_ANNOTATION$DIMS_AND_ANNO
 62
     3
 66
     1
 10
0.0
 20
0.0
 30
0.0
 70
     1
  0
VERTEX
  5
12E
  8
_ANNOTATION$DIMS_AND_ANNO
 62
     3
 10
-269.5992656199584
 20
-742.1572133876602
 30
0.0
 42
-0.2401375415905731
  0
VERTEX
  5
12F
  8
_ANNOTATION$DIMS_AND_ANNO
 62
     3
 10
-269.5739797559943
 20
-742.1701007194558
 30
0.0
  0
VERTEX
  5
130
  8
_ANNOTATION$DIMS_AND_ANNO
 62
     3
 10
-269.448147017731
 20
-742.343375619734
 30
0.0
 42
-0.1583274682769048
  0
VERTEX
  5
131
  8
_ANNOTATION$DIMS_AND_ANNO
 62
     3
 10
-269.4421828816955
 20
-742.3617382879385
 30
0.0
  0
VERTEX
  5
132
  8
_ANNOTATION$DIMS_AND_ANNO
 62
     3
 10
-269.4421828816953
 20
-742.3726884873819
 30
0.0
 42
-0.1583274682894361
  0
VERTEX
  5
133
  8
_ANNOTATION$DIMS_AND_ANNO
 62
     3
 10
-269.448147017731
 20
-742.3910511555864
 30
0.0
  0
VERTEX
  5
134
  8
_ANNOTATION$DIMS_AND_ANNO
 62
     3
 10
-269.5739797559942
 20
-742.5643260558644
 30
0.0
 42
-0.2401375416227309
  0
VERTEX
  5
135
  8
_ANNOTATION$DIMS_AND_ANNO
 62
     3
 10
-269.5992656199584
 20
-742.57721338766
 30
0.0
  0
VERTEX
  5
136
  8
_ANNOTATION$DIMS_AND_ANNO
 62
     3
 10
-269.6535885739542
 20
-742.57721338766
 30
0.0
  0
VERTEX
  5
137
  8
_ANNOTATION$DIMS_AND_ANNO
 62
     3
 10
-269.6535885739543
 20
-742.5246937026207
 30
0.0
  0
VERTEX
  5
138
  8
_ANNOTATION$DIMS_AND_ANNO
 62
     3
 10
-269.8811043484981
 20
-742.5246937026208
 30
0.0
  0
VERTEX
  5
139
  8
_ANNOTATION$DIMS_AND_ANNO
 62
     3
 10
-269.881104348498
 20
-742.5636937026206
 30
0.0
  0
VERTEX
  5
13A
  8
_ANNOTATION$DIMS_AND_ANNO
 62
     3
 10
-269.6925885739541
 20
-742.5636937026206
 30
0.0
  0
VERTEX
  5
13B
  8
_ANNOTATION$DIMS_AND_ANNO
 62
     3
 10
-269.6925885739541
 20
-742.61621338766
 30
0.0
  0
VERTEX
  5
13C
  8
_ANNOTATION$DIMS_AND_ANNO
 62
     3
 10
-269.5992656199584
 20
-742.61621338766
 30
0.0
 42
0.2401375415953905
  0
VERTEX
  5
13D
  8
_ANNOTATION$DIMS_AND_ANNO
 62
     3
 10
-269.5424229977671
 20
-742.5872426657837
 30
0.0
  0
VERTEX
  5
13E
  8
_ANNOTATION$DIMS_AND_ANNO
 62
     3
 10
-269.4165902595039
 20
-742.4139677655054
 30
0.0
 42
0.1583274682936238
  0
VERTEX
  5
13F
  8
_ANNOTATION$DIMS_AND_ANNO
 62
     3
 10
-269.4031828816954
 20
-742.3726884873818
 30
0.0
  0
VERTEX
  5
140
  8
_ANNOTATION$DIMS_AND_ANNO
 62
     3
 10
-269.4031828816954
 20
-742.3617382879385
 30
0.0
 42
0.1583274682788631
  0
VERTEX
  5
141
  8
_ANNOTATION$DIMS_AND_ANNO
 62
     3
 10
-269.4165902595038
 20
-742.3204590098152
 30
0.0
  0
VERTEX
  5
142
  8
_ANNOTATION$DIMS_AND_ANNO
 62
     3
 10
-269.5424229977669
 20
-742.1471841095365
 30
0.0
 42
0.240137541601405
  0
VERTEX
  5
143
  8
_ANNOTATION$DIMS_AND_ANNO
 62
     3
 10
-269.5992656199583
 20
-742.1182133876599
 30
0.0
  0
VERTEX
  5
144
  8
_ANNOTATION$DIMS_AND_ANNO
 62
     3
 10
-269.6925885739541
 20
-742.11821338766
 30
0.0
  0
VERTEX
  5
145
  8
_ANNOTATION$DIMS_AND_ANNO
 62
     3
 10
-269.6925885739543
 20
-742.1707330726995
 30
0.0
  0
VERTEX
  5
146
  8
_ANNOTATION$DIMS_AND_ANNO
 62
     3
 10
-269.881104348498
 20
-742.1707330726995
 30
0.0
  0
VERTEX
  5
147
  8
_ANNOTATION$DIMS_AND_ANNO
 62
     3
 10
-269.881104348498
 20
-742.2097330726995
 30
0.0
  0
VERTEX
  5
148
  8
_ANNOTATION$DIMS_AND_ANNO
 62
     3
 10
-269.6535885739542
 20
-742.2097330726994
 30
0.0
  0
VERTEX
  5
149
  8
_ANNOTATION$DIMS_AND_ANNO
 62
     3
 10
-269.6535885739542
 20
-742.1572133876601
 30
0.0
  0
SEQEND
  5
14A
  8
_ANNOTATION$DIMS_AND_ANNO
 62
     3
  0
POLYLINE
  5
14B
  8
_ANNOTATION$DIMS_AND_ANNO
 62
     3
 66
     1
 10
0.0
 20
0.0
 30
0.0
 70
     1
  0
VERTEX
  5
14C
  8
_ANNOTATION$DIMS_AND_ANNO
 62
     3
 10
-228.9342132949419
 20
-742.1337654432447
 30
0.0
 42
0.2401375415798441
  0
VERTEX
  5
14D
  8
_ANNOTATION$DIMS_AND_ANNO
 62
     3
 10
-228.9594991589062
 20
-742.1466527750403
 30
0.0
  0
VERTEX
  5
14E
  8
_ANNOTATION$DIMS_AND_ANNO
 62
     3
 10
-229.0853318971694
 20
-742.3199276753187
 30
0.0
 42
0.1583274682756145
  0
VERTEX
  5
14F
  8
_ANNOTATION$DIMS_AND_ANNO
 62
     3
 10
-229.0912960332051
 20
-742.3382903435231
 30
0.0
  0
VERTEX
  5
150
  8
_ANNOTATION$DIMS_AND_ANNO
 62
     3
 10
-229.0912960332051
 20
-742.3492405429665
 30
0.0
 42
0.1583274682889657
  0
VERTEX
  5
151
  8
_ANNOTATION$DIMS_AND_ANNO
 62
     3
 10
-229.0853318971693
 20
-742.367603211171
 30
0.0
  0
VERTEX
  5
152
  8
_ANNOTATION$DIMS_AND_ANNO
 62
     3
 10
-228.9594991589062
 20
-742.5408781114492
 30
0.0
 42
0.2401375416047278
  0
VERTEX
  5
153
  8
_ANNOTATION$DIMS_AND_ANNO
 62
     3
 10
-228.9342132949419
 20
-742.5537654432446
 30
0.0
  0
VERTEX
  5
154
  8
_ANNOTATION$DIMS_AND_ANNO
 62
     3
 10
-228.8798903409462
 20
-742.5537654432446
 30
0.0
  0
VERTEX
  5
155
  8
_ANNOTATION$DIMS_AND_ANNO
 62
     3
 10
-228.8798903409462
 20
-742.5012457582053
 30
0.0
  0
VERTEX
  5
156
  8
_ANNOTATION$DIMS_AND_ANNO
 62
     3
 10
-228.6523745664024
 20
-742.5012457582053
 30
0.0
  0
VERTEX
  5
157
  8
_ANNOTATION$DIMS_AND_ANNO
 62
     3
 10
-228.6523745664024
 20
-742.5402457582053
 30
0.0
  0
VERTEX
  5
158
  8
_ANNOTATION$DIMS_AND_ANNO
 62
     3
 10
-228.8408903409462
 20
-742.5402457582053
 30
0.0
  0
VERTEX
  5
159
  8
_ANNOTATION$DIMS_AND_ANNO
 62
     3
 10
-228.8408903409462
 20
-742.5927654432446
 30
0.0
  0
VERTEX
  5
15A
  8
_ANNOTATION$DIMS_AND_ANNO
 62
     3
 10
-228.934213294942
 20
-742.5927654432446
 30
0.0
 42
-0.2401375415958963
  0
VERTEX
  5
15B
  8
_ANNOTATION$DIMS_AND_ANNO
 62
     3
 10
-228.9910559171334
 20
-742.5637947213684
 30
0.0
  0
VERTEX
  5
15C
  8
_ANNOTATION$DIMS_AND_ANNO
 62
     3
 10
-229.1168886553965
 20
-742.3905198210898
 30
0.0
 42
-0.1583274682906354
  0
VERTEX
  5
15D
  8
_ANNOTATION$DIMS_AND_ANNO
 62
     3
 10
-229.1302960332049
 20
-742.3492405429664
 30
0.0
  0
VERTEX
  5
15E
  8
_ANNOTATION$DIMS_AND_ANNO
 62
     3
 10
-229.1302960332051
 20
-742.3382903435231
 30
0.0
 42
-0.1583274682818843
  0
VERTEX
  5
15F
  8
_ANNOTATION$DIMS_AND_ANNO
 62
     3
 10
-229.1168886553967
 20
-742.2970110653997
 30
0.0
  0
VERTEX
  5
160
  8
_ANNOTATION$DIMS_AND_ANNO
 62
     3
 10
-228.9910559171335
 20
-742.123736165121
 30
0.0
 42
-0.2401375415984774
  0
VERTEX
  5
161
  8
_ANNOTATION$DIMS_AND_ANNO
 62
     3
 10
-228.9342132949419
 20
-742.0947654432445
 30
0.0
  0
VERTEX
  5
162
  8
_ANNOTATION$DIMS_AND_ANNO
 62
     3
 10
-228.8408903409462
 20
-742.0947654432447
 30
0.0
  0
VERTEX
  5
163
  8
_ANNOTATION$DIMS_AND_ANNO
 62
     3
 10
-228.8408903409462
 20
-742.147285128284
 30
0.0
  0
VERTEX
  5
164
  8
_ANNOTATION$DIMS_AND_ANNO
 62
     3
 10
-228.6523745664024
 20
-742.147285128284
 30
0.0
  0
VERTEX
  5
165
  8
_ANNOTATION$DIMS_AND_ANNO
 62
     3
 10
-228.6523745664024
 20
-742.186285128284
 30
0.0
  0
VERTEX
  5
166
  8
_ANNOTATION$DIMS_AND_ANNO
 62
     3
 10
-228.8798903409462
 20
-742.186285128284
 30
0.0
  0
VERTEX
  5
167
  8
_ANNOTATION$DIMS_AND_ANNO
 62
     3
 10
-228.8798903409462
 20
-742.1337654432447
 30
0.0
  0
SEQEND
  5
168
  8
_ANNOTATION$DIMS_AND_ANNO
 62
     3
  0
POLYLINE
  5
169
  8
_ANNOTATION$DIMS_AND_ANNO
 62
     3
 66
     1
 10
0.0
 20
0.0
 30
0.0
 70
     1
  0
VERTEX
  5
16A
  8
_ANNOTATION$DIMS_AND_ANNO
 62
     3
 10
-230.3397251059656
 20
-742.1337654432448
 30
0.0
 42
0.2401375415998186
  0
VERTEX
  5
16B
  8
_ANNOTATION$DIMS_AND_ANNO
 62
     3
 10
-230.3650109699299
 20
-742.1466527750403
 30
0.0
  0
VERTEX
  5
16C
  8
_ANNOTATION$DIMS_AND_ANNO
 62
     3
 10
-230.4908437081928
 20
-742.3199276753188
 30
0.0
 42
0.158327468271384
  0
VERTEX
  5
16D
  8
_ANNOTATION$DIMS_AND_ANNO
 62
     3
 10
-230.4968078442288
 20
-742.3382903435231
 30
0.0
  0
VERTEX
  5
16E
  8
_ANNOTATION$DIMS_AND_ANNO
 62
     3
 10
-230.4968078442286
 20
-742.3492405429665
 30
0.0
 42
0.1583274682998808
  0
VERTEX
  5
16F
  8
_ANNOTATION$DIMS_AND_ANNO
 62
     3
 10
-230.4908437081928
 20
-742.367603211171
 30
0.0
  0
VERTEX
  5
170
  8
_ANNOTATION$DIMS_AND_ANNO
 62
     3
 10
-230.3650109699297
 20
-742.5408781114492
 30
0.0
 42
0.2401375416117485
  0
VERTEX
  5
171
  8
_ANNOTATION$DIMS_AND_ANNO
 62
     3
 10
-230.3397251059655
 20
-742.5537654432449
 30
0.0
  0
VERTEX
  5
172
  8
_ANNOTATION$DIMS_AND_ANNO
 62
     3
 10
-230.2854021519697
 20
-742.5537654432447
 30
0.0
  0
VERTEX
  5
173
  8
_ANNOTATION$DIMS_AND_ANNO
 62
     3
 10
-230.2854021519697
 20
-742.5012457582054
 30
0.0
  0
VERTEX
  5
174
  8
_ANNOTATION$DIMS_AND_ANNO
 62
     3
 10
-230.0578863774261
 20
-742.5012457582054
 30
0.0
  0
VERTEX
  5
175
  8
_ANNOTATION$DIMS_AND_ANNO
 62
     3
 10
-230.0578863774261
 20
-742.5402457582054
 30
0.0
  0
VERTEX
  5
176
  8
_ANNOTATION$DIMS_AND_ANNO
 62
     3
 10
-230.2464021519698
 20
-742.5402457582054
 30
0.0
  0
VERTEX
  5
177
  8
_ANNOTATION$DIMS_AND_ANNO
 62
     3
 10
-230.2464021519698
 20
-742.5927654432447
 30
0.0
  0
VERTEX
  5
178
  8
_ANNOTATION$DIMS_AND_ANNO
 62
     3
 10
-230.3397251059655
 20
-742.5927654432447
 30
0.0
 42
-0.2401375416019912
  0
VERTEX
  5
179
  8
_ANNOTATION$DIMS_AND_ANNO
 62
     3
 10
-230.396567728157
 20
-742.5637947213683
 30
0.0
  0
VERTEX
  5
17A
  8
_ANNOTATION$DIMS_AND_ANNO
 62
     3
 10
-230.5224004664201
 20
-742.3905198210898
 30
0.0
 42
-0.1583274682903051
  0
VERTEX
  5
17B
  8
_ANNOTATION$DIMS_AND_ANNO
 62
     3
 10
-230.5358078442288
 20
-742.3492405429664
 30
0.0
  0
VERTEX
  5
17C
  8
_ANNOTATION$DIMS_AND_ANNO
 62
     3
 10
-230.5358078442286
 20
-742.3382903435231
 30
0.0
 42
-0.1583274682883412
  0
VERTEX
  5
17D
  8
_ANNOTATION$DIMS_AND_ANNO
 62
     3
 10
-230.5224004664202
 20
-742.2970110653998
 30
0.0
  0
VERTEX
  5
17E
  8
_ANNOTATION$DIMS_AND_ANNO
 62
     3
 10
-230.3965677281571
 20
-742.1237361651212
 30
0.0
 42
-0.2401375416030661
  0
VERTEX
  5
17F
  8
_ANNOTATION$DIMS_AND_ANNO
 62
     3
 10
-230.3397251059656
 20
-742.0947654432448
 30
0.0
  0
VERTEX
  5
180
  8
_ANNOTATION$DIMS_AND_ANNO
 62
     3
 10
-230.2464021519698
 20
-742.0947654432448
 30
0.0
  0
VERTEX
  5
181
  8
_ANNOTATION$DIMS_AND_ANNO
 62
     3
 10
-230.2464021519698
 20
-742.1472851282841
 30
0.0
  0
VERTEX
  5
182
  8
_ANNOTATION$DIMS_AND_ANNO
 62
     3
 10
-230.0578863774261
 20
-742.1472851282841
 30
0.0
  0
VERTEX
  5
183
  8
_ANNOTATION$DIMS_AND_ANNO
 62
     3
 10
-230.0578863774261
 20
-742.1862851282841
 30
0.0
  0
VERTEX
  5
184
  8
_ANNOTATION$DIMS_AND_ANNO
 62
     3
 10
-230.2854021519697
 20
-742.1862851282841
 30
0.0
  0
VERTEX
  5
185
  8
_ANNOTATION$DIMS_AND_ANNO
 62
     3
 10
-230.2854021519697
 20
-742.1337654432448
 30
0.0
  0
SEQEND
  5
186
  8
_ANNOTATION$DIMS_AND_ANNO
 62
     3
  0
POLYLINE
  5
187
  8
_ANNOTATION$DIMS_AND_ANNO
 62
     3
 66
     1
 10
0.0
 20
0.0
 30
0.0
 70
     1
  0
VERTEX
  5
188
  8
_ANNOTATION$DIMS_AND_ANNO
 62
     3
 10
-239.8469137906186
 20
-742.1337654432449
 30
0.0
 42
-0.2401375415988739
  0
VERTEX
  5
189
  8
_ANNOTATION$DIMS_AND_ANNO
 62
     3
 10
-239.8216279266544
 20
-742.1466527750405
 30
0.0
  0
VERTEX
  5
18A
  8
_ANNOTATION$DIMS_AND_ANNO
 62
     3
 10
-239.6957951883913
 20
-742.3199276753188
 30
0.0
 42
-0.1583274682855653
  0
VERTEX
  5
18B
  8
_ANNOTATION$DIMS_AND_ANNO
 62
     3
 10
-239.6898310523555
 20
-742.3382903435232
 30
0.0
  0
VERTEX
  5
18C
  8
_ANNOTATION$DIMS_AND_ANNO
 62
     3
 10
-239.6898310523556
 20
-742.3492405429666
 30
0.0
 42
-0.1583274683049208
  0
VERTEX
  5
18D
  8
_ANNOTATION$DIMS_AND_ANNO
 62
     3
 10
-239.6957951883914
 20
-742.3676032111708
 30
0.0
  0
VERTEX
  5
18E
  8
_ANNOTATION$DIMS_AND_ANNO
 62
     3
 10
-239.8216279266544
 20
-742.5408781114493
 30
0.0
 42
-0.2401375415942651
  0
VERTEX
  5
18F
  8
_ANNOTATION$DIMS_AND_ANNO
 62
     3
 10
-239.8469137906186
 20
-742.5537654432447
 30
0.0
  0
VERTEX
  5
190
  8
_ANNOTATION$DIMS_AND_ANNO
 62
     3
 10
-239.9012367446144
 20
-742.5537654432449
 30
0.0
  0
VERTEX
  5
191
  8
_ANNOTATION$DIMS_AND_ANNO
 62
     3
 10
-239.9012367446144
 20
-742.5012457582055
 30
0.0
  0
VERTEX
  5
192
  8
_ANNOTATION$DIMS_AND_ANNO
 62
     3
 10
-240.1287525191581
 20
-742.5012457582055
 30
0.0
  0
VERTEX
  5
193
  8
_ANNOTATION$DIMS_AND_ANNO
 62
     3
 10
-240.1287525191581
 20
-742.5402457582055
 30
0.0
  0
VERTEX
  5
194
  8
_ANNOTATION$DIMS_AND_ANNO
 62
     3
 10
-239.9402367446144
 20
-742.5402457582055
 30
0.0
  0
VERTEX
  5
195
  8
_ANNOTATION$DIMS_AND_ANNO
 62
     3
 10
-239.9402367446144
 20
-742.5927654432448
 30
0.0
  0
VERTEX
  5
196
  8
_ANNOTATION$DIMS_AND_ANNO
 62
     3
 10
-239.8469137906186
 20
-742.5927654432448
 30
0.0
 42
0.2401375415918465
  0
VERTEX
  5
197
  8
_ANNOTATION$DIMS_AND_ANNO
 62
     3
 10
-239.7900711684272
 20
-742.5637947213683
 30
0.0
  0
VERTEX
  5
198
  8
_ANNOTATION$DIMS_AND_ANNO
 62
     3
 10
-239.664238430164
 20
-742.3905198210899
 30
0.0
 42
0.158327468294256
  0
VERTEX
  5
199
  8
_ANNOTATION$DIMS_AND_ANNO
 62
     3
 10
-239.6508310523554
 20
-742.3492405429665
 30
0.0
  0
VERTEX
  5
19A
  8
_ANNOTATION$DIMS_AND_ANNO
 62
     3
 10
-239.6508310523555
 20
-742.3382903435232
 30
0.0
 42
0.1583274682828603
  0
VERTEX
  5
19B
  8
_ANNOTATION$DIMS_AND_ANNO
 62
     3
 10
-239.6642384301639
 20
-742.2970110654002
 30
0.0
  0
VERTEX
  5
19C
  8
_ANNOTATION$DIMS_AND_ANNO
 62
     3
 10
-239.7900711684271
 20
-742.1237361651213
 30
0.0
 42
0.2401375416075827
  0
VERTEX
  5
19D
  8
_ANNOTATION$DIMS_AND_ANNO
 62
     3
 10
-239.8469137906186
 20
-742.094765443245
 30
0.0
  0
VERTEX
  5
19E
  8
_ANNOTATION$DIMS_AND_ANNO
 62
     3
 10
-239.9402367446144
 20
-742.0947654432449
 30
0.0
  0
VERTEX
  5
19F
  8
_ANNOTATION$DIMS_AND_ANNO
 62
     3
 10
-239.9402367446144
 20
-742.1472851282842
 30
0.0
  0
VERTEX
  5
1A0
  8
_ANNOTATION$DIMS_AND_ANNO
 62
     3
 10
-240.1287525191581
 20
-742.1472851282842
 30
0.0
  0
VERTEX
  5
1A1
  8
_ANNOTATION$DIMS_AND_ANNO
 62
     3
 10
-240.1287525191581
 20
-742.1862851282842
 30
0.0
  0
VERTEX
  5
1A2
  8
_ANNOTATION$DIMS_AND_ANNO
 62
     3
 10
-239.9012367446144
 20
-742.1862851282842
 30
0.0
  0
VERTEX
  5
1A3
  8
_ANNOTATION$DIMS_AND_ANNO
 62
     3
 10
-239.9012367446144
 20
-742.1337654432449
 30
0.0
  0
SEQEND
  5
1A4
  8
_ANNOTATION$DIMS_AND_ANNO
 62
     3
  0
POLYLINE
  5
1A5
  8
_ANNOTATION$DIMS_AND_ANNO
 62
     3
 66
     1
 10
0.0
 20
0.0
 30
0.0
 70
     1
  0
VERTEX
  5
1A6
  8
_ANNOTATION$DIMS_AND_ANNO
 62
     3
 10
-238.441401979595
 20
-742.1337654432449
 30
0.0
 42
-0.240137541588721
  0
VERTEX
  5
1A7
  8
_ANNOTATION$DIMS_AND_ANNO
 62
     3
 10
-238.4161161156308
 20
-742.1466527750405
 30
0.0
  0
VERTEX
  5
1A8
  8
_ANNOTATION$DIMS_AND_ANNO
 62
     3
 10
-238.2902833773676
 20
-742.3199276753188
 30
0.0
 42
-0.158327468293853
  0
VERTEX
  5
1A9
  8
_ANNOTATION$DIMS_AND_ANNO
 62
     3
 10
-238.2843192413319
 20
-742.3382903435232
 30
0.0
  0
VERTEX
  5
1AA
  8
_ANNOTATION$DIMS_AND_ANNO
 62
     3
 10
-238.2843192413319
 20
-742.3492405429666
 30
0.0
 42
-0.1583274682798316
  0
VERTEX
  5
1AB
  8
_ANNOTATION$DIMS_AND_ANNO
 62
     3
 10
-238.2902833773677
 20
-742.367603211171
 30
0.0
  0
VERTEX
  5
1AC
  8
_ANNOTATION$DIMS_AND_ANNO
 62
     3
 10
-238.4161161156308
 20
-742.5408781114493
 30
0.0
 42
-0.2401375415975439
  0
VERTEX
  5
1AD
  8
_ANNOTATION$DIMS_AND_ANNO
 62
     3
 10
-238.441401979595
 20
-742.5537654432444
 30
0.0
  0
VERTEX
  5
1AE
  8
_ANNOTATION$DIMS_AND_ANNO
 62
     3
 10
-238.4957249335908
 20
-742.5537654432449
 30
0.0
  0
VERTEX
  5
1AF
  8
_ANNOTATION$DIMS_AND_ANNO
 62
     3
 10
-238.4957249335908
 20
-742.5012457582055
 30
0.0
  0
VERTEX
  5
1B0
  8
_ANNOTATION$DIMS_AND_ANNO
 62
     3
 10
-238.7232407081346
 20
-742.5012457582055
 30
0.0
  0
VERTEX
  5
1B1
  8
_ANNOTATION$DIMS_AND_ANNO
 62
     3
 10
-238.7232407081346
 20
-742.5402457582055
 30
0.0
  0
VERTEX
  5
1B2
  8
_ANNOTATION$DIMS_AND_ANNO
 62
     3
 10
-238.5347249335908
 20
-742.5402457582055
 30
0.0
  0
VERTEX
  5
1B3
  8
_ANNOTATION$DIMS_AND_ANNO
 62
     3
 10
-238.5347249335908
 20
-742.5927654432448
 30
0.0
  0
VERTEX
  5
1B4
  8
_ANNOTATION$DIMS_AND_ANNO
 62
     3
 10
-238.441401979595
 20
-742.5927654432448
 30
0.0
 42
0.240137541592919
  0
VERTEX
  5
1B5
  8
_ANNOTATION$DIMS_AND_ANNO
 62
     3
 10
-238.3845593574035
 20
-742.5637947213685
 30
0.0
  0
VERTEX
  5
1B6
  8
_ANNOTATION$DIMS_AND_ANNO
 62
     3
 10
-238.2587266191404
 20
-742.39051982109
 30
0.0
 42
0.1583274682919297
  0
VERTEX
  5
1B7
  8
_ANNOTATION$DIMS_AND_ANNO
 62
     3
 10
-238.2453192413318
 20
-742.3492405429665
 30
0.0
  0
VERTEX
  5
1B8
  8
_ANNOTATION$DIMS_AND_ANNO
 62
     3
 10
-238.245319241332
 20
-742.3382903435232
 30
0.0
 42
0.1583274682801613
  0
VERTEX
  5
1B9
  8
_ANNOTATION$DIMS_AND_ANNO
 62
     3
 10
-238.2587266191404
 20
-742.2970110653999
 30
0.0
  0
VERTEX
  5
1BA
  8
_ANNOTATION$DIMS_AND_ANNO
 62
     3
 10
-238.3845593574035
 20
-742.1237361651213
 30
0.0
 42
0.2401375416026323
  0
VERTEX
  5
1BB
  8
_ANNOTATION$DIMS_AND_ANNO
 62
     3
 10
-238.441401979595
 20
-742.0947654432449
 30
0.0
  0
VERTEX
  5
1BC
  8
_ANNOTATION$DIMS_AND_ANNO
 62
     3
 10
-238.5347249335908
 20
-742.0947654432449
 30
0.0
  0
VERTEX
  5
1BD
  8
_ANNOTATION$DIMS_AND_ANNO
 62
     3
 10
-238.5347249335908
 20
-742.1472851282842
 30
0.0
  0
VERTEX
  5
1BE
  8
_ANNOTATION$DIMS_AND_ANNO
 62
     3
 10
-238.7232407081346
 20
-742.1472851282842
 30
0.0
  0
VERTEX
  5
1BF
  8
_ANNOTATION$DIMS_AND_ANNO
 62
     3
 10
-238.7232407081346
 20
-742.1862851282842
 30
0.0
  0
VERTEX
  5
1C0
  8
_ANNOTATION$DIMS_AND_ANNO
 62
     3
 10
-238.4957249335908
 20
-742.1862851282842
 30
0.0
  0
VERTEX
  5
1C1
  8
_ANNOTATION$DIMS_AND_ANNO
 62
     3
 10
-238.4957249335908
 20
-742.1337654432449
 30
0.0
  0
SEQEND
  5
1C2
  8
_ANNOTATION$DIMS_AND_ANNO
 62
     3
  0
POLYLINE
  5
1C3
  8
_ANNOTATION$DIMS_AND_ANNO
 62
     3
 66
     1
 10
0.0
 20
0.0
 30
0.0
 70
     1
  0
VERTEX
  5
1C4
  8
_ANNOTATION$DIMS_AND_ANNO
 62
     3
 10
-228.699882510825
 20
-743.2187654433077
 30
0.0
 42
0.4142135623738812
  0
VERTEX
  5
1C5
  8
_ANNOTATION$DIMS_AND_ANNO
 62
     3
 10
-228.324882510825
 20
-742.8437654433077
 30
0.0
  0
VERTEX
  5
1C6
  8
_ANNOTATION$DIMS_AND_ANNO
 62
     3
 10
-228.3248825108251
 20
-741.8437654432512
 30
0.0
 42
0.4142135623727187
  0
VERTEX
  5
1C7
  8
_ANNOTATION$DIMS_AND_ANNO
 62
     3
 10
-228.699882510825
 20
-741.4687654432512
 30
0.0
  0
VERTEX
  5
1C8
  8
_ANNOTATION$DIMS_AND_ANNO
 62
     3
 10
-240.0812445747356
 20
-741.4687654432507
 30
0.0
 42
0.414213562371839
  0
VERTEX
  5
1C9
  8
_ANNOTATION$DIMS_AND_ANNO
 62
     3
 10
-240.4562445747357
 20
-741.843765443251
 30
0.0
  0
VERTEX
  5
1CA
  8
_ANNOTATION$DIMS_AND_ANNO
 62
     3
 10
-240.4562445747357
 20
-742.8437654433071
 30
0.0
 42
0.4142135623726982
  0
VERTEX
  5
1CB
  8
_ANNOTATION$DIMS_AND_ANNO
 62
     3
 10
-240.0812445747357
 20
-743.2187654433071
 30
0.0
  0
SEQEND
  5
1CC
  8
_ANNOTATION$DIMS_AND_ANNO
 62
     3
  0
POLYLINE
  5
1CD
  8
_ANNOTATION$DIMS_AND_ANNO
 62
     3
 66
     1
 10
0.0
 20
0.0
 30
0.0
 70
     1
  0
VERTEX
  5
1CE
  8
_ANNOTATION$DIMS_AND_ANNO
 62
     3
 10
-270.226929447244
 20
-723.2173637151733
 30
0.0
 42
0.2401375415886879
  0
VERTEX
  5
1CF
  8
_ANNOTATION$DIMS_AND_ANNO
 62
     3
 10
-270.2140421154484
 20
-723.2426495791376
 30
0.0
  0
VERTEX
  5
1D0
  8
_ANNOTATION$DIMS_AND_ANNO
 62
     3
 10
-270.04076721517
 20
-723.3684823174005
 30
0.0
 42
0.1583274682935277
  0
VERTEX
  5
1D1
  8
_ANNOTATION$DIMS_AND_ANNO
 62
     3
 10
-270.0224045469656
 20
-723.3744464534363
 30
0.0
  0
VERTEX
  5
1D2
  8
_ANNOTATION$DIMS_AND_ANNO
 62
     3
 10
-270.0114543475221
 20
-723.3744464534363
 30
0.0
 42
0.1583274682834627
  0
VERTEX
  5
1D3
  8
_ANNOTATION$DIMS_AND_ANNO
 62
     3
 10
-269.9930916793178
 20
-723.3684823174005
 30
0.0
  0
VERTEX
  5
1D4
  8
_ANNOTATION$DIMS_AND_ANNO
 62
     3
 10
-269.8198167790396
 20
-723.2426495791374
 30
0.0
 42
0.240137541607707
  0
VERTEX
  5
1D5
  8
_ANNOTATION$DIMS_AND_ANNO
 62
     3
 10
-269.8069294472439
 20
-723.2173637151731
 30
0.0
  0
VERTEX
  5
1D6
  8
_ANNOTATION$DIMS_AND_ANNO
 62
     3
 10
-269.806929447244
 20
-723.1630407611775
 30
0.0
  0
VERTEX
  5
1D7
  8
_ANNOTATION$DIMS_AND_ANNO
 62
     3
 10
-269.8594491322834
 20
-723.1630407611774
 30
0.0
  0
VERTEX
  5
1D8
  8
_ANNOTATION$DIMS_AND_ANNO
 62
     3
 10
-269.8594491322834
 20
-722.9355249866336
 30
0.0
  0
VERTEX
  5
1D9
  8
_ANNOTATION$DIMS_AND_ANNO
 62
     3
 10
-269.8204491322835
 20
-722.9355249866336
 30
0.0
  0
VERTEX
  5
1DA
  8
_ANNOTATION$DIMS_AND_ANNO
 62
     3
 10
-269.8204491322834
 20
-723.1240407611775
 30
0.0
  0
VERTEX
  5
1DB
  8
_ANNOTATION$DIMS_AND_ANNO
 62
     3
 10
-269.767929447244
 20
-723.1240407611775
 30
0.0
  0
VERTEX
  5
1DC
  8
_ANNOTATION$DIMS_AND_ANNO
 62
     3
 10
-269.7679294472439
 20
-723.2173637151733
 30
0.0
 42
-0.2401375415928248
  0
VERTEX
  5
1DD
  8
_ANNOTATION$DIMS_AND_ANNO
 62
     3
 10
-269.7969001691205
 20
-723.2742063373644
 30
0.0
  0
VERTEX
  5
1DE
  8
_ANNOTATION$DIMS_AND_ANNO
 62
     3
 10
-269.9701750693989
 20
-723.4000390756275
 30
0.0
 42
-0.1583274682988763
  0
VERTEX
  5
1DF
  8
_ANNOTATION$DIMS_AND_ANNO
 62
     3
 10
-270.0114543475223
 20
-723.4134464534362
 30
0.0
  0
VERTEX
  5
1E0
  8
_ANNOTATION$DIMS_AND_ANNO
 62
     3
 10
-270.0224045469656
 20
-723.4134464534363
 30
0.0
 42
-0.1583274682715394
  0
VERTEX
  5
1E1
  8
_ANNOTATION$DIMS_AND_ANNO
 62
     3
 10
-270.0636838250888
 20
-723.4000390756279
 30
0.0
  0
VERTEX
  5
1E2
  8
_ANNOTATION$DIMS_AND_ANNO
 62
     3
 10
-270.2369587253675
 20
-723.2742063373646
 30
0.0
 42
-0.2401375416013934
  0
VERTEX
  5
1E3
  8
_ANNOTATION$DIMS_AND_ANNO
 62
     3
 10
-270.265929447244
 20
-723.2173637151734
 30
0.0
  0
VERTEX
  5
1E4
  8
_ANNOTATION$DIMS_AND_ANNO
 62
     3
 10
-270.265929447244
 20
-723.1240407611775
 30
0.0
  0
VERTEX
  5
1E5
  8
_ANNOTATION$DIMS_AND_ANNO
 62
     3
 10
-270.2134097622047
 20
-723.1240407611774
 30
0.0
  0
VERTEX
  5
1E6
  8
_ANNOTATION$DIMS_AND_ANNO
 62
     3
 10
-270.2134097622047
 20
-722.9355249866336
 30
0.0
  0
VERTEX
  5
1E7
  8
_ANNOTATION$DIMS_AND_ANNO
 62
     3
 10
-270.1744097622048
 20
-722.9355249866336
 30
0.0
  0
VERTEX
  5
1E8
  8
_ANNOTATION$DIMS_AND_ANNO
 62
     3
 10
-270.1744097622047
 20
-723.1630407611774
 30
0.0
  0
VERTEX
  5
1E9
  8
_ANNOTATION$DIMS_AND_ANNO
 62
     3
 10
-270.226929447244
 20
-723.1630407611774
 30
0.0
  0
SEQEND
  5
1EA
  8
_ANNOTATION$DIMS_AND_ANNO
 62
     3
  0
POLYLINE
  5
1EB
  8
_ANNOTATION$DIMS_AND_ANNO
 62
     3
 66
     1
 10
0.0
 20
0.0
 30
0.0
 70
     1
  0
VERTEX
  5
1EC
  8
_ANNOTATION$DIMS_AND_ANNO
 62
     3
 10
-270.2269294472438
 20
-724.6228755261968
 30
0.0
 42
0.2401375416035422
  0
VERTEX
  5
1ED
  8
_ANNOTATION$DIMS_AND_ANNO
 62
     3
 10
-270.2140421154483
 20
-724.6481613901612
 30
0.0
  0
VERTEX
  5
1EE
  8
_ANNOTATION$DIMS_AND_ANNO
 62
     3
 10
-270.0407672151699
 20
-724.7739941284242
 30
0.0
 42
0.1583274682957024
  0
VERTEX
  5
1EF
  8
_ANNOTATION$DIMS_AND_ANNO
 62
     3
 10
-270.0224045469654
 20
-724.77995826446
 30
0.0
  0
VERTEX
  5
1F0
  8
_ANNOTATION$DIMS_AND_ANNO
 62
     3
 10
-270.0114543475221
 20
-724.7799582644597
 30
0.0
 42
0.1583274683170574
  0
VERTEX
  5
1F1
  8
_ANNOTATION$DIMS_AND_ANNO
 62
     3
 10
-269.9930916793177
 20
-724.7739941284242
 30
0.0
  0
VERTEX
  5
1F2
  8
_ANNOTATION$DIMS_AND_ANNO
 62
     3
 10
-269.8198167790394
 20
-724.6481613901609
 30
0.0
 42
0.2401375416147154
  0
VERTEX
  5
1F3
  8
_ANNOTATION$DIMS_AND_ANNO
 62
     3
 10
-269.8069294472436
 20
-724.6228755261967
 30
0.0
  0
VERTEX
  5
1F4
  8
_ANNOTATION$DIMS_AND_ANNO
 62
     3
 10
-269.8069294472438
 20
-724.568552572201
 30
0.0
  0
VERTEX
  5
1F5
  8
_ANNOTATION$DIMS_AND_ANNO
 62
     3
 10
-269.8594491322831
 20
-724.5685525722009
 30
0.0
  0
VERTEX
  5
1F6
  8
_ANNOTATION$DIMS_AND_ANNO
 62
     3
 10
-269.8594491322833
 20
-724.3410367976572
 30
0.0
  0
VERTEX
  5
1F7
  8
_ANNOTATION$DIMS_AND_ANNO
 62
     3
 10
-269.8204491322832
 20
-724.3410367976574
 30
0.0
  0
VERTEX
  5
1F8
  8
_ANNOTATION$DIMS_AND_ANNO
 62
     3
 10
-269.8204491322832
 20
-724.529552572201
 30
0.0
  0
VERTEX
  5
1F9
  8
_ANNOTATION$DIMS_AND_ANNO
 62
     3
 10
-269.7679294472439
 20
-724.5295525722009
 30
0.0
  0
VERTEX
  5
1FA
  8
_ANNOTATION$DIMS_AND_ANNO
 62
     3
 10
-269.7679294472439
 20
-724.6228755261968
 30
0.0
 42
-0.240137541601428
  0
VERTEX
  5
1FB
  8
_ANNOTATION$DIMS_AND_ANNO
 62
     3
 10
-269.7969001691203
 20
-724.6797181483884
 30
0.0
  0
VERTEX
  5
1FC
  8
_ANNOTATION$DIMS_AND_ANNO
 62
     3
 10
-269.9701750693987
 20
-724.8055508866514
 30
0.0
 42
-0.158327468282538
  0
VERTEX
  5
1FD
  8
_ANNOTATION$DIMS_AND_ANNO
 62
     3
 10
-270.0114543475221
 20
-724.8189582644599
 30
0.0
  0
VERTEX
  5
1FE
  8
_ANNOTATION$DIMS_AND_ANNO
 62
     3
 10
-270.0224045469654
 20
-724.8189582644599
 30
0.0
 42
-0.1583274682840559
  0
VERTEX
  5
1FF
  8
_ANNOTATION$DIMS_AND_ANNO
 62
     3
 10
-270.0636838250888
 20
-724.8055508866515
 30
0.0
  0
VERTEX
  5
200
  8
_ANNOTATION$DIMS_AND_ANNO
 62
     3
 10
-270.2369587253676
 20
-724.6797181483884
 30
0.0
 42
-0.2401375415960148
  0
VERTEX
  5
201
  8
_ANNOTATION$DIMS_AND_ANNO
 62
     3
 10
-270.2659294472438
 20
-724.6228755261969
 30
0.0
  0
VERTEX
  5
202
  8
_ANNOTATION$DIMS_AND_ANNO
 62
     3
 10
-270.2659294472438
 20
-724.529552572201
 30
0.0
  0
VERTEX
  5
203
  8
_ANNOTATION$DIMS_AND_ANNO
 62
     3
 10
-270.2134097622044
 20
-724.5295525722009
 30
0.0
  0
VERTEX
  5
204
  8
_ANNOTATION$DIMS_AND_ANNO
 62
     3
 10
-270.2134097622044
 20
-724.3410367976574
 30
0.0
  0
VERTEX
  5
205
  8
_ANNOTATION$DIMS_AND_ANNO
 62
     3
 10
-270.1744097622044
 20
-724.3410367976574
 30
0.0
  0
VERTEX
  5
206
  8
_ANNOTATION$DIMS_AND_ANNO
 62
     3
 10
-270.1744097622044
 20
-724.5685525722012
 30
0.0
  0
VERTEX
  5
207
  8
_ANNOTATION$DIMS_AND_ANNO
 62
     3
 10
-270.2269294472438
 20
-724.568552572201
 30
0.0
  0
SEQEND
  5
208
  8
_ANNOTATION$DIMS_AND_ANNO
 62
     3
  0
POLYLINE
  5
209
  8
_ANNOTATION$DIMS_AND_ANNO
 62
     3
 66
     1
 10
0.0
 20
0.0
 30
0.0
 70
     1
  0
VERTEX
  5
20A
  8
_ANNOTATION$DIMS_AND_ANNO
 62
     3
 10
-270.2269294472431
 20
-734.1300642108498
 30
0.0
 42
-0.2401375416002201
  0
VERTEX
  5
20B
  8
_ANNOTATION$DIMS_AND_ANNO
 62
     3
 10
-270.2140421154475
 20
-734.1047783468856
 30
0.0
  0
VERTEX
  5
20C
  8
_ANNOTATION$DIMS_AND_ANNO
 62
     3
 10
-270.0407672151692
 20
-733.9789456086226
 30
0.0
 42
-0.1583274682817502
  0
VERTEX
  5
20D
  8
_ANNOTATION$DIMS_AND_ANNO
 62
     3
 10
-270.0224045469648
 20
-733.9729814725868
 30
0.0
  0
VERTEX
  5
20E
  8
_ANNOTATION$DIMS_AND_ANNO
 62
     3
 10
-270.0114543475214
 20
-733.9729814725869
 30
0.0
 42
-0.1583274682939529
  0
VERTEX
  5
20F
  8
_ANNOTATION$DIMS_AND_ANNO
 62
     3
 10
-269.9930916793171
 20
-733.9789456086227
 30
0.0
  0
VERTEX
  5
210
  8
_ANNOTATION$DIMS_AND_ANNO
 62
     3
 10
-269.8198167790387
 20
-734.1047783468856
 30
0.0
 42
-0.2401375415917598
  0
VERTEX
  5
211
  8
_ANNOTATION$DIMS_AND_ANNO
 62
     3
 10
-269.8069294472432
 20
-734.1300642108498
 30
0.0
  0
VERTEX
  5
212
  8
_ANNOTATION$DIMS_AND_ANNO
 62
     3
 10
-269.8069294472432
 20
-734.1843871648456
 30
0.0
  0
VERTEX
  5
213
  8
_ANNOTATION$DIMS_AND_ANNO
 62
     3
 10
-269.8594491322825
 20
-734.1843871648456
 30
0.0
  0
VERTEX
  5
214
  8
_ANNOTATION$DIMS_AND_ANNO
 62
     3
 10
-269.8594491322825
 20
-734.4119029393894
 30
0.0
  0
VERTEX
  5
215
  8
_ANNOTATION$DIMS_AND_ANNO
 62
     3
 10
-269.8204491322825
 20
-734.4119029393893
 30
0.0
  0
VERTEX
  5
216
  8
_ANNOTATION$DIMS_AND_ANNO
 62
     3
 10
-269.8204491322825
 20
-734.2233871648456
 30
0.0
  0
VERTEX
  5
217
  8
_ANNOTATION$DIMS_AND_ANNO
 62
     3
 10
-269.7679294472432
 20
-734.2233871648456
 30
0.0
  0
VERTEX
  5
218
  8
_ANNOTATION$DIMS_AND_ANNO
 62
     3
 10
-269.7679294472433
 20
-734.1300642108498
 30
0.0
 42
0.240137541601777
  0
VERTEX
  5
219
  8
_ANNOTATION$DIMS_AND_ANNO
 62
     3
 10
-269.7969001691196
 20
-734.0732215886584
 30
0.0
  0
VERTEX
  5
21A
  8
_ANNOTATION$DIMS_AND_ANNO
 62
     3
 10
-269.970175069398
 20
-733.9473888503951
 30
0.0
 42
0.1583274682965939
  0
VERTEX
  5
21B
  8
_ANNOTATION$DIMS_AND_ANNO
 62
     3
 10
-270.0114543475215
 20
-733.9339814725868
 30
0.0
  0
VERTEX
  5
21C
  8
_ANNOTATION$DIMS_AND_ANNO
 62
     3
 10
-270.0224045469648
 20
-733.9339814725868
 30
0.0
 42
0.1583274682797396
  0
VERTEX
  5
21D
  8
_ANNOTATION$DIMS_AND_ANNO
 62
     3
 10
-270.063683825088
 20
-733.9473888503952
 30
0.0
  0
VERTEX
  5
21E
  8
_ANNOTATION$DIMS_AND_ANNO
 62
     3
 10
-270.2369587253667
 20
-734.0732215886585
 30
0.0
 42
0.2401375416043735
  0
VERTEX
  5
21F
  8
_ANNOTATION$DIMS_AND_ANNO
 62
     3
 10
-270.2659294472432
 20
-734.1300642108498
 30
0.0
  0
VERTEX
  5
220
  8
_ANNOTATION$DIMS_AND_ANNO
 62
     3
 10
-270.2659294472431
 20
-734.2233871648456
 30
0.0
  0
VERTEX
  5
221
  8
_ANNOTATION$DIMS_AND_ANNO
 62
     3
 10
-270.2134097622037
 20
-734.2233871648457
 30
0.0
  0
VERTEX
  5
222
  8
_ANNOTATION$DIMS_AND_ANNO
 62
     3
 10
-270.2134097622038
 20
-734.4119029393894
 30
0.0
  0
VERTEX
  5
223
  8
_ANNOTATION$DIMS_AND_ANNO
 62
     3
 10
-270.1744097622038
 20
-734.4119029393893
 30
0.0
  0
VERTEX
  5
224
  8
_ANNOTATION$DIMS_AND_ANNO
 62
     3
 10
-270.1744097622039
 20
-734.1843871648456
 30
0.0
  0
VERTEX
  5
225
  8
_ANNOTATION$DIMS_AND_ANNO
 62
     3
 10
-270.2269294472432
 20
-734.1843871648455
 30
0.0
  0
SEQEND
  5
226
  8
_ANNOTATION$DIMS_AND_ANNO
 62
     3
  0
POLYLINE
  5
227
  8
_ANNOTATION$DIMS_AND_ANNO
 62
     3
 66
     1
 10
0.0
 20
0.0
 30
0.0
 70
     1
  0
VERTEX
  5
228
  8
_ANNOTATION$DIMS_AND_ANNO
 62
     3
 10
-270.2269294472432
 20
-732.7245523998263
 30
0.0
 42
-0.2401375415941939
  0
VERTEX
  5
229
  8
_ANNOTATION$DIMS_AND_ANNO
 62
     3
 10
-270.2140421154477
 20
-732.6992665358617
 30
0.0
  0
VERTEX
  5
22A
  8
_ANNOTATION$DIMS_AND_ANNO
 62
     3
 10
-270.0407672151693
 20
-732.5734337975989
 30
0.0
 42
-0.158327468297526
  0
VERTEX
  5
22B
  8
_ANNOTATION$DIMS_AND_ANNO
 62
     3
 10
-270.0224045469649
 20
-732.5674696615631
 30
0.0
  0
VERTEX
  5
22C
  8
_ANNOTATION$DIMS_AND_ANNO
 62
     3
 10
-270.0114543475215
 20
-732.5674696615632
 30
0.0
 42
-0.1583274682706829
  0
VERTEX
  5
22D
  8
_ANNOTATION$DIMS_AND_ANNO
 62
     3
 10
-269.9930916793171
 20
-732.573433797599
 30
0.0
  0
VERTEX
  5
22E
  8
_ANNOTATION$DIMS_AND_ANNO
 62
     3
 10
-269.8198167790389
 20
-732.6992665358621
 30
0.0
 42
-0.2401375416000349
  0
VERTEX
  5
22F
  8
_ANNOTATION$DIMS_AND_ANNO
 62
     3
 10
-269.8069294472434
 20
-732.7245523998263
 30
0.0
  0
VERTEX
  5
230
  8
_ANNOTATION$DIMS_AND_ANNO
 62
     3
 10
-269.8069294472432
 20
-732.778875353822
 30
0.0
  0
VERTEX
  5
231
  8
_ANNOTATION$DIMS_AND_ANNO
 62
     3
 10
-269.8594491322826
 20
-732.7788753538221
 30
0.0
  0
VERTEX
  5
232
  8
_ANNOTATION$DIMS_AND_ANNO
 62
     3
 10
-269.8594491322826
 20
-733.0063911283657
 30
0.0
  0
VERTEX
  5
233
  8
_ANNOTATION$DIMS_AND_ANNO
 62
     3
 10
-269.8204491322826
 20
-733.0063911283659
 30
0.0
  0
VERTEX
  5
234
  8
_ANNOTATION$DIMS_AND_ANNO
 62
     3
 10
-269.8204491322826
 20
-732.817875353822
 30
0.0
  0
VERTEX
  5
235
  8
_ANNOTATION$DIMS_AND_ANNO
 62
     3
 10
-269.7679294472433
 20
-732.817875353822
 30
0.0
  0
VERTEX
  5
236
  8
_ANNOTATION$DIMS_AND_ANNO
 62
     3
 10
-269.7679294472433
 20
-732.7245523998263
 30
0.0
 42
0.2401375415914812
  0
VERTEX
  5
237
  8
_ANNOTATION$DIMS_AND_ANNO
 62
     3
 10
-269.7969001691195
 20
-732.6677097776347
 30
0.0
  0
VERTEX
  5
238
  8
_ANNOTATION$DIMS_AND_ANNO
 62
     3
 10
-269.9701750693982
 20
-732.5418770393718
 30
0.0
 42
0.1583274682974621
  0
VERTEX
  5
239
  8
_ANNOTATION$DIMS_AND_ANNO
 62
     3
 10
-270.0114543475216
 20
-732.5284696615631
 30
0.0
  0
VERTEX
  5
23A
  8
_ANNOTATION$DIMS_AND_ANNO
 62
     3
 10
-270.0224045469649
 20
-732.5284696615632
 30
0.0
 42
0.1583274682776023
  0
VERTEX
  5
23B
  8
_ANNOTATION$DIMS_AND_ANNO
 62
     3
 10
-270.0636838250882
 20
-732.5418770393715
 30
0.0
  0
VERTEX
  5
23C
  8
_ANNOTATION$DIMS_AND_ANNO
 62
     3
 10
-270.2369587253669
 20
-732.6677097776349
 30
0.0
 42
0.2401375416017836
  0
VERTEX
  5
23D
  8
_ANNOTATION$DIMS_AND_ANNO
 62
     3
 10
-270.2659294472431
 20
-732.7245523998262
 30
0.0
  0
VERTEX
  5
23E
  8
_ANNOTATION$DIMS_AND_ANNO
 62
     3
 10
-270.2659294472432
 20
-732.8178753538219
 30
0.0
  0
VERTEX
  5
23F
  8
_ANNOTATION$DIMS_AND_ANNO
 62
     3
 10
-270.2134097622039
 20
-732.817875353822
 30
0.0
  0
VERTEX
  5
240
  8
_ANNOTATION$DIMS_AND_ANNO
 62
     3
 10
-270.2134097622039
 20
-733.0063911283659
 30
0.0
  0
VERTEX
  5
241
  8
_ANNOTATION$DIMS_AND_ANNO
 62
     3
 10
-270.1744097622039
 20
-733.0063911283659
 30
0.0
  0
VERTEX
  5
242
  8
_ANNOTATION$DIMS_AND_ANNO
 62
     3
 10
-270.1744097622038
 20
-732.778875353822
 30
0.0
  0
VERTEX
  5
243
  8
_ANNOTATION$DIMS_AND_ANNO
 62
     3
 10
-270.2269294472431
 20
-732.7788753538221
 30
0.0
  0
SEQEND
  5
244
  8
_ANNOTATION$DIMS_AND_ANNO
 62
     3
  0
POLYLINE
  5
245
  8
_ANNOTATION$DIMS_AND_ANNO
 62
     3
 66
     1
 10
0.0
 20
0.0
 30
0.0
 70
     1
  0
VERTEX
  5
246
  8
_ANNOTATION$DIMS_AND_ANNO
 62
     3
 10
-269.141929447181
 20
-722.9830329310563
 30
0.0
 42
0.4142135623731004
  0
VERTEX
  5
247
  8
_ANNOTATION$DIMS_AND_ANNO
 62
     3
 10
-269.516929447181
 20
-722.6080329310564
 30
0.0
  0
VERTEX
  5
248
  8
_ANNOTATION$DIMS_AND_ANNO
 62
     3
 10
-270.5169294472375
 20
-722.6080329310564
 30
0.0
 42
0.4142135623719146
  0
VERTEX
  5
249
  8
_ANNOTATION$DIMS_AND_ANNO
 62
     3
 10
-270.8919294472374
 20
-722.9830329310564
 30
0.0
  0
VERTEX
  5
24A
  8
_ANNOTATION$DIMS_AND_ANNO
 62
     3
 10
-270.8919294472371
 20
-734.3643949949669
 30
0.0
 42
0.4142135623720296
  0
VERTEX
  5
24B
  8
_ANNOTATION$DIMS_AND_ANNO
 62
     3
 10
-270.5169294472372
 20
-734.7393949949669
 30
0.0
  0
VERTEX
  5
24C
  8
_ANNOTATION$DIMS_AND_ANNO
 62
     3
 10
-269.5169294471809
 20
-734.7393949949669
 30
0.0
 42
0.4142135623718887
  0
VERTEX
  5
24D
  8
_ANNOTATION$DIMS_AND_ANNO
 62
     3
 10
-269.141929447181
 20
-734.3643949949669
 30
0.0
  0
SEQEND
  5
24E
  8
_ANNOTATION$DIMS_AND_ANNO
 62
     3
  0
POLYLINE
  5
24F
  8
_ANNOTATION$DIMS_AND_ANNO
 62
     3
 66
     1
 10
0.0
 20
0.0
 30
0.0
 70
     1
  0
VERTEX
  5
250
  8
_ANNOTATION$DIMS_AND_ANNO
 62
     3
 10
-271.9769294473003
 20
-723.2173637151733
 30
0.0
 42
0.2401375415895529
  0
VERTEX
  5
251
  8
_ANNOTATION$DIMS_AND_ANNO
 62
     3
 10
-271.9640421155047
 20
-723.2426495791376
 30
0.0
  0
VERTEX
  5
252
  8
_ANNOTATION$DIMS_AND_ANNO
 62
     3
 10
-271.7907672152263
 20
-723.3684823174005
 30
0.0
 42
0.1583274682935277
  0
VERTEX
  5
253
  8
_ANNOTATION$DIMS_AND_ANNO
 62
     3
 10
-271.7724045470218
 20
-723.3744464534363
 30
0.0
  0
VERTEX
  5
254
  8
_ANNOTATION$DIMS_AND_ANNO
 62
     3
 10
-271.7614543475784
 20
-723.3744464534363
 30
0.0
 42
0.1583274682731093
  0
VERTEX
  5
255
  8
_ANNOTATION$DIMS_AND_ANNO
 62
     3
 10
-271.7430916793741
 20
-723.3684823174008
 30
0.0
  0
VERTEX
  5
256
  8
_ANNOTATION$DIMS_AND_ANNO
 62
     3
 10
-271.5698167790958
 20
-723.2426495791374
 30
0.0
 42
0.2401375416096568
  0
VERTEX
  5
257
  8
_ANNOTATION$DIMS_AND_ANNO
 62
     3
 10
-271.5569294473002
 20
-723.2173637151731
 30
0.0
  0
VERTEX
  5
258
  8
_ANNOTATION$DIMS_AND_ANNO
 62
     3
 10
-271.5569294473003
 20
-723.1630407611775
 30
0.0
  0
VERTEX
  5
259
  8
_ANNOTATION$DIMS_AND_ANNO
 62
     3
 10
-271.6094491323396
 20
-723.1630407611774
 30
0.0
  0
VERTEX
  5
25A
  8
_ANNOTATION$DIMS_AND_ANNO
 62
     3
 10
-271.6094491323396
 20
-722.9355249866336
 30
0.0
  0
VERTEX
  5
25B
  8
_ANNOTATION$DIMS_AND_ANNO
 62
     3
 10
-271.5704491323398
 20
-722.9355249866336
 30
0.0
  0
VERTEX
  5
25C
  8
_ANNOTATION$DIMS_AND_ANNO
 62
     3
 10
-271.5704491323397
 20
-723.1240407611775
 30
0.0
  0
VERTEX
  5
25D
  8
_ANNOTATION$DIMS_AND_ANNO
 62
     3
 10
-271.5179294473003
 20
-723.1240407611775
 30
0.0
  0
VERTEX
  5
25E
  8
_ANNOTATION$DIMS_AND_ANNO
 62
     3
 10
-271.5179294473003
 20
-723.2173637151733
 30
0.0
 42
-0.2401375415927557
  0
VERTEX
  5
25F
  8
_ANNOTATION$DIMS_AND_ANNO
 62
     3
 10
-271.5469001691768
 20
-723.2742063373646
 30
0.0
  0
VERTEX
  5
260
  8
_ANNOTATION$DIMS_AND_ANNO
 62
     3
 10
-271.7201750694551
 20
-723.4000390756275
 30
0.0
 42
-0.1583274682988763
  0
VERTEX
  5
261
  8
_ANNOTATION$DIMS_AND_ANNO
 62
     3
 10
-271.7614543475785
 20
-723.4134464534362
 30
0.0
  0
VERTEX
  5
262
  8
_ANNOTATION$DIMS_AND_ANNO
 62
     3
 10
-271.7724045470218
 20
-723.4134464534363
 30
0.0
 42
-0.1583274682707504
  0
VERTEX
  5
263
  8
_ANNOTATION$DIMS_AND_ANNO
 62
     3
 10
-271.8136838251452
 20
-723.4000390756279
 30
0.0
  0
VERTEX
  5
264
  8
_ANNOTATION$DIMS_AND_ANNO
 62
     3
 10
-271.9869587254238
 20
-723.2742063373646
 30
0.0
 42
-0.2401375416055516
  0
VERTEX
  5
265
  8
_ANNOTATION$DIMS_AND_ANNO
 62
     3
 10
-272.0159294473006
 20
-723.2173637151734
 30
0.0
  0
VERTEX
  5
266
  8
_ANNOTATION$DIMS_AND_ANNO
 62
     3
 10
-272.0159294473003
 20
-723.1240407611775
 30
0.0
  0
VERTEX
  5
267
  8
_ANNOTATION$DIMS_AND_ANNO
 62
     3
 10
-271.9634097622609
 20
-723.1240407611774
 30
0.0
  0
VERTEX
  5
268
  8
_ANNOTATION$DIMS_AND_ANNO
 62
     3
 10
-271.9634097622609
 20
-722.9355249866336
 30
0.0
  0
VERTEX
  5
269
  8
_ANNOTATION$DIMS_AND_ANNO
 62
     3
 10
-271.9244097622611
 20
-722.9355249866336
 30
0.0
  0
VERTEX
  5
26A
  8
_ANNOTATION$DIMS_AND_ANNO
 62
     3
 10
-271.924409762261
 20
-723.1630407611774
 30
0.0
  0
VERTEX
  5
26B
  8
_ANNOTATION$DIMS_AND_ANNO
 62
     3
 10
-271.9769294473003
 20
-723.1630407611774
 30
0.0
  0
SEQEND
  5
26C
  8
_ANNOTATION$DIMS_AND_ANNO
 62
     3
  0
POLYLINE
  5
26D
  8
_ANNOTATION$DIMS_AND_ANNO
 62
     3
 66
     1
 10
0.0
 20
0.0
 30
0.0
 70
     1
  0
VERTEX
  5
26E
  8
_ANNOTATION$DIMS_AND_ANNO
 62
     3
 10
-271.9769294473001
 20
-724.6228755261968
 30
0.0
 42
0.2401375416085396
  0
VERTEX
  5
26F
  8
_ANNOTATION$DIMS_AND_ANNO
 62
     3
 10
-271.9640421155046
 20
-724.6481613901612
 30
0.0
  0
VERTEX
  5
270
  8
_ANNOTATION$DIMS_AND_ANNO
 62
     3
 10
-271.7907672152261
 20
-724.7739941284242
 30
0.0
 42
0.1583274682954378
  0
VERTEX
  5
271
  8
_ANNOTATION$DIMS_AND_ANNO
 62
     3
 10
-271.7724045470217
 20
-724.77995826446
 30
0.0
  0
VERTEX
  5
272
  8
_ANNOTATION$DIMS_AND_ANNO
 62
     3
 10
-271.7614543475784
 20
-724.7799582644598
 30
0.0
 42
0.1583274683218475
  0
VERTEX
  5
273
  8
_ANNOTATION$DIMS_AND_ANNO
 62
     3
 10
-271.743091679374
 20
-724.7739941284241
 30
0.0
  0
VERTEX
  5
274
  8
_ANNOTATION$DIMS_AND_ANNO
 62
     3
 10
-271.5698167790957
 20
-724.6481613901609
 30
0.0
 42
0.2401375416137663
  0
VERTEX
  5
275
  8
_ANNOTATION$DIMS_AND_ANNO
 62
     3
 10
-271.5569294473
 20
-724.6228755261967
 30
0.0
  0
VERTEX
  5
276
  8
_ANNOTATION$DIMS_AND_ANNO
 62
     3
 10
-271.5569294473001
 20
-724.568552572201
 30
0.0
  0
VERTEX
  5
277
  8
_ANNOTATION$DIMS_AND_ANNO
 62
     3
 10
-271.6094491323394
 20
-724.5685525722009
 30
0.0
  0
VERTEX
  5
278
  8
_ANNOTATION$DIMS_AND_ANNO
 62
     3
 10
-271.6094491323395
 20
-724.3410367976572
 30
0.0
  0
VERTEX
  5
279
  8
_ANNOTATION$DIMS_AND_ANNO
 62
     3
 10
-271.5704491323394
 20
-724.3410367976574
 30
0.0
  0
VERTEX
  5
27A
  8
_ANNOTATION$DIMS_AND_ANNO
 62
     3
 10
-271.5704491323394
 20
-724.529552572201
 30
0.0
  0
VERTEX
  5
27B
  8
_ANNOTATION$DIMS_AND_ANNO
 62
     3
 10
-271.5179294473002
 20
-724.5295525722009
 30
0.0
  0
VERTEX
  5
27C
  8
_ANNOTATION$DIMS_AND_ANNO
 62
     3
 10
-271.5179294473002
 20
-724.6228755261968
 30
0.0
 42
-0.2401375416003235
  0
VERTEX
  5
27D
  8
_ANNOTATION$DIMS_AND_ANNO
 62
     3
 10
-271.5469001691766
 20
-724.6797181483884
 30
0.0
  0
VERTEX
  5
27E
  8
_ANNOTATION$DIMS_AND_ANNO
 62
     3
 10
-271.720175069455
 20
-724.8055508866514
 30
0.0
 42
-0.1583274682881644
  0
VERTEX
  5
27F
  8
_ANNOTATION$DIMS_AND_ANNO
 62
     3
 10
-271.7614543475784
 20
-724.8189582644599
 30
0.0
  0
VERTEX
  5
280
  8
_ANNOTATION$DIMS_AND_ANNO
 62
     3
 10
-271.7724045470217
 20
-724.8189582644599
 30
0.0
 42
-0.1583274682835231
  0
VERTEX
  5
281
  8
_ANNOTATION$DIMS_AND_ANNO
 62
     3
 10
-271.8136838251451
 20
-724.8055508866515
 30
0.0
  0
VERTEX
  5
282
  8
_ANNOTATION$DIMS_AND_ANNO
 62
     3
 10
-271.9869587254238
 20
-724.6797181483882
 30
0.0
 42
-0.2401375415979842
  0
VERTEX
  5
283
  8
_ANNOTATION$DIMS_AND_ANNO
 62
     3
 10
-272.0159294473
 20
-724.6228755261969
 30
0.0
  0
VERTEX
  5
284
  8
_ANNOTATION$DIMS_AND_ANNO
 62
     3
 10
-272.0159294473001
 20
-724.529552572201
 30
0.0
  0
VERTEX
  5
285
  8
_ANNOTATION$DIMS_AND_ANNO
 62
     3
 10
-271.9634097622607
 20
-724.5295525722009
 30
0.0
  0
VERTEX
  5
286
  8
_ANNOTATION$DIMS_AND_ANNO
 62
     3
 10
-271.9634097622607
 20
-724.3410367976574
 30
0.0
  0
VERTEX
  5
287
  8
_ANNOTATION$DIMS_AND_ANNO
 62
     3
 10
-271.9244097622607
 20
-724.3410367976574
 30
0.0
  0
VERTEX
  5
288
  8
_ANNOTATION$DIMS_AND_ANNO
 62
     3
 10
-271.9244097622607
 20
-724.5685525722012
 30
0.0
  0
VERTEX
  5
289
  8
_ANNOTATION$DIMS_AND_ANNO
 62
     3
 10
-271.9769294473001
 20
-724.568552572201
 30
0.0
  0
SEQEND
  5
28A
  8
_ANNOTATION$DIMS_AND_ANNO
 62
     3
  0
POLYLINE
  5
28B
  8
_ANNOTATION$DIMS_AND_ANNO
 62
     3
 66
     1
 10
0.0
 20
0.0
 30
0.0
 70
     1
  0
VERTEX
  5
28C
  8
_ANNOTATION$DIMS_AND_ANNO
 62
     3
 10
-271.9769294472994
 20
-734.1300642108498
 30
0.0
 42
-0.2401375415952141
  0
VERTEX
  5
28D
  8
_ANNOTATION$DIMS_AND_ANNO
 62
     3
 10
-271.9640421155038
 20
-734.1047783468855
 30
0.0
  0
VERTEX
  5
28E
  8
_ANNOTATION$DIMS_AND_ANNO
 62
     3
 10
-271.7907672152255
 20
-733.9789456086226
 30
0.0
 42
-0.1583274682951731
  0
VERTEX
  5
28F
  8
_ANNOTATION$DIMS_AND_ANNO
 62
     3
 10
-271.772404547021
 20
-733.9729814725866
 30
0.0
  0
VERTEX
  5
290
  8
_ANNOTATION$DIMS_AND_ANNO
 62
     3
 10
-271.7614543475777
 20
-733.9729814725869
 30
0.0
 42
-0.1583274682883443
  0
VERTEX
  5
291
  8
_ANNOTATION$DIMS_AND_ANNO
 62
     3
 10
-271.7430916793734
 20
-733.9789456086226
 30
0.0
  0
VERTEX
  5
292
  8
_ANNOTATION$DIMS_AND_ANNO
 62
     3
 10
-271.569816779095
 20
-734.1047783468856
 30
0.0
 42
-0.2401375415980851
  0
VERTEX
  5
293
  8
_ANNOTATION$DIMS_AND_ANNO
 62
     3
 10
-271.5569294472994
 20
-734.1300642108498
 30
0.0
  0
VERTEX
  5
294
  8
_ANNOTATION$DIMS_AND_ANNO
 62
     3
 10
-271.5569294472995
 20
-734.1843871648456
 30
0.0
  0
VERTEX
  5
295
  8
_ANNOTATION$DIMS_AND_ANNO
 62
     3
 10
-271.6094491323387
 20
-734.1843871648456
 30
0.0
  0
VERTEX
  5
296
  8
_ANNOTATION$DIMS_AND_ANNO
 62
     3
 10
-271.6094491323387
 20
-734.4119029393894
 30
0.0
  0
VERTEX
  5
297
  8
_ANNOTATION$DIMS_AND_ANNO
 62
     3
 10
-271.5704491323388
 20
-734.4119029393893
 30
0.0
  0
VERTEX
  5
298
  8
_ANNOTATION$DIMS_AND_ANNO
 62
     3
 10
-271.5704491323388
 20
-734.2233871648456
 30
0.0
  0
VERTEX
  5
299
  8
_ANNOTATION$DIMS_AND_ANNO
 62
     3
 10
-271.5179294472995
 20
-734.2233871648456
 30
0.0
  0
VERTEX
  5
29A
  8
_ANNOTATION$DIMS_AND_ANNO
 62
     3
 10
-271.5179294472996
 20
-734.1300642108498
 30
0.0
 42
0.2401375416011902
  0
VERTEX
  5
29B
  8
_ANNOTATION$DIMS_AND_ANNO
 62
     3
 10
-271.5469001691758
 20
-734.0732215886583
 30
0.0
  0
VERTEX
  5
29C
  8
_ANNOTATION$DIMS_AND_ANNO
 62
     3
 10
-271.7201750694543
 20
-733.9473888503951
 30
0.0
 42
0.1583274682962289
  0
VERTEX
  5
29D
  8
_ANNOTATION$DIMS_AND_ANNO
 62
     3
 10
-271.7614543475777
 20
-733.9339814725868
 30
0.0
  0
VERTEX
  5
29E
  8
_ANNOTATION$DIMS_AND_ANNO
 62
     3
 10
-271.772404547021
 20
-733.9339814725868
 30
0.0
 42
0.1583274682797396
  0
VERTEX
  5
29F
  8
_ANNOTATION$DIMS_AND_ANNO
 62
     3
 10
-271.8136838251443
 20
-733.9473888503952
 30
0.0
  0
VERTEX
  5
2A0
  8
_ANNOTATION$DIMS_AND_ANNO
 62
     3
 10
-271.9869587254229
 20
-734.0732215886584
 30
0.0
 42
0.2401375416048399
  0
VERTEX
  5
2A1
  8
_ANNOTATION$DIMS_AND_ANNO
 62
     3
 10
-272.0159294472994
 20
-734.1300642108498
 30
0.0
  0
VERTEX
  5
2A2
  8
_ANNOTATION$DIMS_AND_ANNO
 62
     3
 10
-272.0159294472994
 20
-734.2233871648456
 30
0.0
  0
VERTEX
  5
2A3
  8
_ANNOTATION$DIMS_AND_ANNO
 62
     3
 10
-271.96340976226
 20
-734.2233871648457
 30
0.0
  0
VERTEX
  5
2A4
  8
_ANNOTATION$DIMS_AND_ANNO
 62
     3
 10
-271.96340976226
 20
-734.4119029393894
 30
0.0
  0
VERTEX
  5
2A5
  8
_ANNOTATION$DIMS_AND_ANNO
 62
     3
 10
-271.92440976226
 20
-734.4119029393893
 30
0.0
  0
VERTEX
  5
2A6
  8
_ANNOTATION$DIMS_AND_ANNO
 62
     3
 10
-271.9244097622602
 20
-734.1843871648456
 30
0.0
  0
VERTEX
  5
2A7
  8
_ANNOTATION$DIMS_AND_ANNO
 62
     3
 10
-271.9769294472995
 20
-734.1843871648455
 30
0.0
  0
SEQEND
  5
2A8
  8
_ANNOTATION$DIMS_AND_ANNO
 62
     3
  0
POLYLINE
  5
2A9
  8
_ANNOTATION$DIMS_AND_ANNO
 62
     3
 66
     1
 10
0.0
 20
0.0
 30
0.0
 70
     1
  0
VERTEX
  5
2AA
  8
_ANNOTATION$DIMS_AND_ANNO
 62
     3
 10
-271.9769294472995
 20
-732.7245523998263
 30
0.0
 42
-0.2401375416030422
  0
VERTEX
  5
2AB
  8
_ANNOTATION$DIMS_AND_ANNO
 62
     3
 10
-271.9640421155038
 20
-732.6992665358621
 30
0.0
  0
VERTEX
  5
2AC
  8
_ANNOTATION$DIMS_AND_ANNO
 62
     3
 10
-271.7907672152256
 20
-732.5734337975989
 30
0.0
 42
-0.1583274683017388
  0
VERTEX
  5
2AD
  8
_ANNOTATION$DIMS_AND_ANNO
 62
     3
 10
-271.7724045470212
 20
-732.5674696615632
 30
0.0
  0
VERTEX
  5
2AE
  8
_ANNOTATION$DIMS_AND_ANNO
 62
     3
 10
-271.7614543475777
 20
-732.5674696615632
 30
0.0
 42
-0.1583274682706829
  0
VERTEX
  5
2AF
  8
_ANNOTATION$DIMS_AND_ANNO
 62
     3
 10
-271.7430916793734
 20
-732.573433797599
 30
0.0
  0
VERTEX
  5
2B0
  8
_ANNOTATION$DIMS_AND_ANNO
 62
     3
 10
-271.5698167790952
 20
-732.6992665358621
 30
0.0
 42
-0.240137541597378
  0
VERTEX
  5
2B1
  8
_ANNOTATION$DIMS_AND_ANNO
 62
     3
 10
-271.5569294472997
 20
-732.7245523998263
 30
0.0
  0
VERTEX
  5
2B2
  8
_ANNOTATION$DIMS_AND_ANNO
 62
     3
 10
-271.5569294472995
 20
-732.778875353822
 30
0.0
  0
VERTEX
  5
2B3
  8
_ANNOTATION$DIMS_AND_ANNO
 62
     3
 10
-271.6094491323389
 20
-732.7788753538221
 30
0.0
  0
VERTEX
  5
2B4
  8
_ANNOTATION$DIMS_AND_ANNO
 62
     3
 10
-271.6094491323389
 20
-733.0063911283657
 30
0.0
  0
VERTEX
  5
2B5
  8
_ANNOTATION$DIMS_AND_ANNO
 62
     3
 10
-271.5704491323389
 20
-733.0063911283659
 30
0.0
  0
VERTEX
  5
2B6
  8
_ANNOTATION$DIMS_AND_ANNO
 62
     3
 10
-271.5704491323389
 20
-732.817875353822
 30
0.0
  0
VERTEX
  5
2B7
  8
_ANNOTATION$DIMS_AND_ANNO
 62
     3
 10
-271.5179294472995
 20
-732.817875353822
 30
0.0
  0
VERTEX
  5
2B8
  8
_ANNOTATION$DIMS_AND_ANNO
 62
     3
 10
-271.5179294472996
 20
-732.7245523998263
 30
0.0
 42
0.2401375415937438
  0
VERTEX
  5
2B9
  8
_ANNOTATION$DIMS_AND_ANNO
 62
     3
 10
-271.5469001691758
 20
-732.6677097776346
 30
0.0
  0
VERTEX
  5
2BA
  8
_ANNOTATION$DIMS_AND_ANNO
 62
     3
 10
-271.7201750694545
 20
-732.5418770393718
 30
0.0
 42
0.1583274682987424
  0
VERTEX
  5
2BB
  8
_ANNOTATION$DIMS_AND_ANNO
 62
     3
 10
-271.7614543475779
 20
-732.5284696615631
 30
0.0
  0
VERTEX
  5
2BC
  8
_ANNOTATION$DIMS_AND_ANNO
 62
     3
 10
-271.7724045470212
 20
-732.5284696615632
 30
0.0
 42
0.1583274682776023
  0
VERTEX
  5
2BD
  8
_ANNOTATION$DIMS_AND_ANNO
 62
     3
 10
-271.8136838251444
 20
-732.5418770393715
 30
0.0
  0
VERTEX
  5
2BE
  8
_ANNOTATION$DIMS_AND_ANNO
 62
     3
 10
-271.9869587254232
 20
-732.6677097776349
 30
0.0
 42
0.2401375416032251
  0
VERTEX
  5
2BF
  8
_ANNOTATION$DIMS_AND_ANNO
 62
     3
 10
-272.0159294472995
 20
-732.7245523998262
 30
0.0
  0
VERTEX
  5
2C0
  8
_ANNOTATION$DIMS_AND_ANNO
 62
     3
 10
-272.0159294472995
 20
-732.8178753538219
 30
0.0
  0
VERTEX
  5
2C1
  8
_ANNOTATION$DIMS_AND_ANNO
 62
     3
 10
-271.9634097622601
 20
-732.817875353822
 30
0.0
  0
VERTEX
  5
2C2
  8
_ANNOTATION$DIMS_AND_ANNO
 62
     3
 10
-271.9634097622601
 20
-733.0063911283659
 30
0.0
  0
VERTEX
  5
2C3
  8
_ANNOTATION$DIMS_AND_ANNO
 62
     3
 10
-271.9244097622602
 20
-733.0063911283659
 30
0.0
  0
VERTEX
  5
2C4
  8
_ANNOTATION$DIMS_AND_ANNO
 62
     3
 10
-271.9244097622601
 20
-732.778875353822
 30
0.0
  0
VERTEX
  5
2C5
  8
_ANNOTATION$DIMS_AND_ANNO
 62
     3
 10
-271.9769294472994
 20
-732.7788753538221
 30
0.0
  0
SEQEND
  5
2C6
  8
_ANNOTATION$DIMS_AND_ANNO
 62
     3
  0
POLYLINE
  5
2C7
  8
_ANNOTATION$DIMS_AND_ANNO
 62
     3
 66
     1
 10
0.0
 20
0.0
 30
0.0
 70
     1
  0
VERTEX
  5
2C8
  8
_ANNOTATION$DIMS_AND_ANNO
 62
     3
 10
-270.8919294472373
 20
-722.9830329310563
 30
0.0
 42
0.4142135623732889
  0
VERTEX
  5
2C9
  8
_ANNOTATION$DIMS_AND_ANNO
 62
     3
 10
-271.2669294472373
 20
-722.6080329310565
 30
0.0
  0
VERTEX
  5
2CA
  8
_ANNOTATION$DIMS_AND_ANNO
 62
     3
 10
-272.2669294472938
 20
-722.6080329310564
 30
0.0
 42
0.4142135623725861
  0
VERTEX
  5
2CB
  8
_ANNOTATION$DIMS_AND_ANNO
 62
     3
 10
-272.6419294472936
 20
-722.9830329310564
 30
0.0
  0
VERTEX
  5
2CC
  8
_ANNOTATION$DIMS_AND_ANNO
 62
     3
 10
-272.6419294472935
 20
-734.3643949949669
 30
0.0
 42
0.4142135623720296
  0
VERTEX
  5
2CD
  8
_ANNOTATION$DIMS_AND_ANNO
 62
     3
 10
-272.2669294472935
 20
-734.7393949949669
 30
0.0
  0
VERTEX
  5
2CE
  8
_ANNOTATION$DIMS_AND_ANNO
 62
     3
 10
-271.2669294472371
 20
-734.7393949949669
 30
0.0
 42
0.4142135623716353
  0
VERTEX
  5
2CF
  8
_ANNOTATION$DIMS_AND_ANNO
 62
     3
 10
-270.8919294472373
 20
-734.3643949949669
 30
0.0
  0
SEQEND
  5
2D0
  8
_ANNOTATION$DIMS_AND_ANNO
 62
     3
  0
POLYLINE
  5
2D1
  8
_ANNOTATION$DIMS_AND_ANNO
 66
     1
 10
0.0
 20
0.0
 30
0.0
 70
     1
  0
VERTEX
  5
2D2
  8
_ANNOTATION$DIMS_AND_ANNO
 10
-264.9437656515669
 20
-733.0512969926283
 30
0.0
  0
VERTEX
  5
2D3
  8
_ANNOTATION$DIMS_AND_ANNO
 10
-268.5849515175777
 20
-732.732734507562
 30
0.0
 42
-0.4142135623722583
  0
VERTEX
  5
2D4
  8
_ANNOTATION$DIMS_AND_ANNO
 10
-268.9428408700752
 20
-732.3062185859717
 30
0.0
  0
VERTEX
  5
2D5
  8
_ANNOTATION$DIMS_AND_ANNO
 10
-268.8589448893597
 20
-731.347283138399
 30
0.0
 42
-0.4142135623724175
  0
VERTEX
  5
2D6
  8
_ANNOTATION$DIMS_AND_ANNO
 10
-268.4324289677687
 20
-730.9893937859009
 30
0.0
  0
VERTEX
  5
2D7
  8
_ANNOTATION$DIMS_AND_ANNO
 10
-262.9041866300997
 20
-731.3098941620516
 30
0.0
 42
0.0142780111746886
  0
VERTEX
  5
2D8
  8
_ANNOTATION$DIMS_AND_ANNO
 10
-257.517923354687
 20
-731.3098941620516
 30
0.0
  0
VERTEX
  5
2D9
  8
_ANNOTATION$DIMS_AND_ANNO
 10
-251.9896810170203
 20
-730.9893937859008
 30
0.0
 42
-0.4142135623713998
  0
VERTEX
  5
2DA
  8
_ANNOTATION$DIMS_AND_ANNO
 10
-251.5631650954297
 20
-731.3472831383984
 30
0.0
  0
VERTEX
  5
2DB
  8
_ANNOTATION$DIMS_AND_ANNO
 10
-251.4792691147142
 20
-732.3062185859711
 30
0.0
 42
-0.4142135623732224
  0
VERTEX
  5
2DC
  8
_ANNOTATION$DIMS_AND_ANNO
 10
-251.8371584672119
 20
-732.7327345075612
 30
0.0
  0
VERTEX
  5
2DD
  8
_ANNOTATION$DIMS_AND_ANNO
 10
-255.4837915671446
 20
-733.051773563844
 30
0.0
 42
0.9999999999999999
  0
VERTEX
  5
2DE
  8
_ANNOTATION$DIMS_AND_ANNO
 10
-255.4783443332225
 20
-733.1140357324747
 30
0.0
  0
VERTEX
  5
2DF
  8
_ANNOTATION$DIMS_AND_ANNO
 10
-255.0084344792623
 20
-733.0729239473741
 30
0.0
 42
-0.440010530892227
  0
VERTEX
  5
2E0
  8
_ANNOTATION$DIMS_AND_ANNO
 10
-254.7366455435754
 20
-733.321972621897
 30
0.0
  0
VERTEX
  5
2E1
  8
_ANNOTATION$DIMS_AND_ANNO
 10
-254.7366455435754
 20
-740.0055289998925
 30
0.0
 42
-0.388878731852956
  0
VERTEX
  5
2E2
  8
_ANNOTATION$DIMS_AND_ANNO
 10
-255.6494898008279
 20
-741.0017236979844
 30
0.0
  0
VERTEX
  5
2E3
  8
_ANNOTATION$DIMS_AND_ANNO
 10
-260.1238992496468
 20
-741.3931838007292
 30
0.0
 42
-0.0436609429090898
  0
VERTEX
  5
2E4
  8
_ANNOTATION$DIMS_AND_ANNO
 10
-260.2982107351418
 20
-741.3931838007289
 30
0.0
  0
VERTEX
  5
2E5
  8
_ANNOTATION$DIMS_AND_ANNO
 10
-264.7726201839606
 20
-741.0017236979846
 30
0.0
 42
-0.3888787318531273
  0
VERTEX
  5
2E6
  8
_ANNOTATION$DIMS_AND_ANNO
 10
-265.6854644412133
 20
-740.0055289998928
 30
0.0
  0
VERTEX
  5
2E7
  8
_ANNOTATION$DIMS_AND_ANNO
 10
-265.6854644412134
 20
-733.3219726218972
 30
0.0
 42
-0.4400105308895778
  0
VERTEX
  5
2E8
  8
_ANNOTATION$DIMS_AND_ANNO
 10
-265.4136755055264
 20
-733.0729239473744
 30
0.0
  0
VERTEX
  5
2E9
  8
_ANNOTATION$DIMS_AND_ANNO
 10
-264.9492128854899
 20
-733.1135591612592
 30
0.0
 42
1.091308501137911
  0
SEQEND
  5
2EA
  8
_ANNOTATION$DIMS_AND_ANNO
  0
POLYLINE
  5
2EB
  8
_ANNOTATION$DIMS_AND_ANNO
 66
     1
 10
0.0
 20
0.0
 30
0.0
 70
     1
  0
VERTEX
  5
2EC
  8
_ANNOTATION$DIMS_AND_ANNO
 10
-267.853053470233
 20
-731.6976043276845
 30
0.0
  0
VERTEX
  5
2ED
  8
_ANNOTATION$DIMS_AND_ANNO
 10
-267.9707142613462
 20
-731.6873103423205
 30
0.0
 42
0.4142135623810345
  0
VERTEX
  5
2EE
  8
_ANNOTATION$DIMS_AND_ANNO
 10
-268.0133658535052
 20
-731.7230992775703
 30
0.0
  0
VERTEX
  5
2EF
  8
_ANNOTATION$DIMS_AND_ANNO
 10
-268.0448482920765
 20
-732.0829451970583
 30
0.0
 42
0.4142135623733013
  0
VERTEX
  5
2F0
  8
_ANNOTATION$DIMS_AND_ANNO
 10
-268.0090593568267
 20
-732.1255967892166
 30
0.0
  0
VERTEX
  5
2F1
  8
_ANNOTATION$DIMS_AND_ANNO
 10
-267.8913985657135
 20
-732.1358907745812
 30
0.0
 42
0.4142135623784511
  0
VERTEX
  5
2F2
  8
_ANNOTATION$DIMS_AND_ANNO
 10
-267.8487469735545
 20
-732.1001018393313
 30
0.0
  0
VERTEX
  5
2F3
  8
_ANNOTATION$DIMS_AND_ANNO
 10
-267.8172645349831
 20
-731.7402559198435
 30
0.0
 42
0.4142135623716198
  0
SEQEND
  5
2F4
  8
_ANNOTATION$DIMS_AND_ANNO
  0
POLYLINE
  5
2F5
  8
_ANNOTATION$DIMS_AND_ANNO
 66
     1
 10
0.0
 20
0.0
 30
0.0
 70
     1
  0
VERTEX
  5
2F6
  8
_ANNOTATION$DIMS_AND_ANNO
 10
-268.3511508192788
 20
-731.6540264563107
 30
0.0
  0
VERTEX
  5
2F7
  8
_ANNOTATION$DIMS_AND_ANNO
 10
-268.468811610392
 20
-731.6437324709467
 30
0.0
 42
0.4142135623811151
  0
VERTEX
  5
2F8
  8
_ANNOTATION$DIMS_AND_ANNO
 10
-268.5114632025509
 20
-731.6795214061965
 30
0.0
  0
VERTEX
  5
2F9
  8
_ANNOTATION$DIMS_AND_ANNO
 10
-268.5429456411224
 20
-732.0393673256843
 30
0.0
 42
0.4142135623687402
  0
VERTEX
  5
2FA
  8
_ANNOTATION$DIMS_AND_ANNO
 10
-268.5071567058725
 20
-732.0820189178435
 30
0.0
  0
VERTEX
  5
2FB
  8
_ANNOTATION$DIMS_AND_ANNO
 10
-268.3894959147593
 20
-732.0923129032074
 30
0.0
 42
0.4142135623747331
  0
VERTEX
  5
2FC
  8
_ANNOTATION$DIMS_AND_ANNO
 10
-268.3468443226003
 20
-732.0565239679574
 30
0.0
  0
VERTEX
  5
2FD
  8
_ANNOTATION$DIMS_AND_ANNO
 10
-268.3153618840291
 20
-731.6966780484697
 30
0.0
 42
0.4142135623790282
  0
SEQEND
  5
2FE
  8
_ANNOTATION$DIMS_AND_ANNO
  0
POLYLINE
  5
2FF
  8
_ANNOTATION$DIMS_AND_ANNO
 66
     1
 10
0.0
 20
0.0
 30
0.0
 70
     1
  0
VERTEX
  5
300
  8
_ANNOTATION$DIMS_AND_ANNO
 10
-252.5690565145561
 20
-731.6976043276843
 30
0.0
 42
0.4142135623748717
  0
VERTEX
  5
301
  8
_ANNOTATION$DIMS_AND_ANNO
 10
-252.6048454498057
 20
-731.7402559198433
 30
0.0
  0
VERTEX
  5
302
  8
_ANNOTATION$DIMS_AND_ANNO
 10
-252.5733630112346
 20
-732.1001018393312
 30
0.0
 42
0.4142135623643017
  0
VERTEX
  5
303
  8
_ANNOTATION$DIMS_AND_ANNO
 10
-252.5307114190756
 20
-732.1358907745808
 30
0.0
  0
VERTEX
  5
304
  8
_ANNOTATION$DIMS_AND_ANNO
 10
-252.4130506279624
 20
-732.125596789217
 30
0.0
 42
0.4142135623765347
  0
VERTEX
  5
305
  8
_ANNOTATION$DIMS_AND_ANNO
 10
-252.3772616927126
 20
-732.0829451970582
 30
0.0
  0
VERTEX
  5
306
  8
_ANNOTATION$DIMS_AND_ANNO
 10
-252.4087441312839
 20
-731.7230992775701
 30
0.0
 42
0.4142135623817477
  0
VERTEX
  5
307
  8
_ANNOTATION$DIMS_AND_ANNO
 10
-252.4513957234429
 20
-731.6873103423204
 30
0.0
  0
SEQEND
  5
308
  8
_ANNOTATION$DIMS_AND_ANNO
  0
POLYLINE
  5
309
  8
_ANNOTATION$DIMS_AND_ANNO
 66
     1
 10
0.0
 20
0.0
 30
0.0
 70
     1
  0
VERTEX
  5
30A
  8
_ANNOTATION$DIMS_AND_ANNO
 10
-252.0709591655102
 20
-731.6540264563105
 30
0.0
 42
0.414213562375021
  0
VERTEX
  5
30B
  8
_ANNOTATION$DIMS_AND_ANNO
 10
-252.1067481007598
 20
-731.6966780484695
 30
0.0
  0
VERTEX
  5
30C
  8
_ANNOTATION$DIMS_AND_ANNO
 10
-252.0752656621886
 20
-732.0565239679573
 30
0.0
 42
0.4142135623741475
  0
VERTEX
  5
30D
  8
_ANNOTATION$DIMS_AND_ANNO
 10
-252.0326140700297
 20
-732.0923129032069
 30
0.0
  0
VERTEX
  5
30E
  8
_ANNOTATION$DIMS_AND_ANNO
 10
-251.9149532789165
 20
-732.0820189178431
 30
0.0
 42
0.4142135623850688
  0
VERTEX
  5
30F
  8
_ANNOTATION$DIMS_AND_ANNO
 10
-251.8791643436672
 20
-732.0393673256841
 30
0.0
  0
VERTEX
  5
310
  8
_ANNOTATION$DIMS_AND_ANNO
 10
-251.910646782238
 20
-731.6795214061963
 30
0.0
 42
0.4142135623709094
  0
VERTEX
  5
311
  8
_ANNOTATION$DIMS_AND_ANNO
 10
-251.953298374397
 20
-731.6437324709466
 30
0.0
  0
SEQEND
  5
312
  8
_ANNOTATION$DIMS_AND_ANNO
  0
POLYLINE
  5
313
  8
_ANNOTATION$DIMS_AND_ANNO
 66
     1
 10
0.0
 20
0.0
 30
0.0
 70
     1
  0
VERTEX
  5
314
  8
_ANNOTATION$DIMS_AND_ANNO
 10
-266.9698306518936
 20
-731.8195265341943
 30
0.0
  0
VERTEX
  5
315
  8
_ANNOTATION$DIMS_AND_ANNO
 10
-267.0874914430069
 20
-731.8092325488303
 30
0.0
  0
VERTEX
  5
316
  8
_ANNOTATION$DIMS_AND_ANNO
 10
-267.1180831087114
 20
-732.1588968878606
 30
0.0
  0
VERTEX
  5
317
  8
_ANNOTATION$DIMS_AND_ANNO
 10
-267.0004223175981
 20
-732.1691908732245
 30
0.0
  0
SEQEND
  5
318
  8
_ANNOTATION$DIMS_AND_ANNO
  0
POLYLINE
  5
319
  8
_ANNOTATION$DIMS_AND_ANNO
 66
     1
 10
0.0
 20
0.0
 30
0.0
 70
     1
  0
VERTEX
  5
31A
  8
_ANNOTATION$DIMS_AND_ANNO
 10
-265.7179196944643
 20
-732.2813953136908
 30
0.0
  0
VERTEX
  5
31B
  8
_ANNOTATION$DIMS_AND_ANNO
 10
-265.6002589033511
 20
-732.2916892990547
 30
0.0
  0
VERTEX
  5
31C
  8
_ANNOTATION$DIMS_AND_ANNO
 10
-265.5696672376466
 20
-731.9420249600246
 30
0.0
  0
VERTEX
  5
31D
  8
_ANNOTATION$DIMS_AND_ANNO
 10
-265.6873280287598
 20
-731.9317309746607
 30
0.0
  0
SEQEND
  5
31E
  8
_ANNOTATION$DIMS_AND_ANNO
  0
POLYLINE
  5
31F
  8
_ANNOTATION$DIMS_AND_ANNO
 66
     1
 10
0.0
 20
0.0
 30
0.0
 70
     1
  0
VERTEX
  5
320
  8
_ANNOTATION$DIMS_AND_ANNO
 10
-253.4522793328948
 20
-731.8195265341941
 30
0.0
  0
VERTEX
  5
321
  8
_ANNOTATION$DIMS_AND_ANNO
 10
-253.4216876671904
 20
-732.1691908732242
 30
0.0
  0
VERTEX
  5
322
  8
_ANNOTATION$DIMS_AND_ANNO
 10
-253.3040268760773
 20
-732.1588968878604
 30
0.0
  0
VERTEX
  5
323
  8
_ANNOTATION$DIMS_AND_ANNO
 10
-253.3346185417817
 20
-731.8092325488301
 30
0.0
  0
SEQEND
  5
324
  8
_ANNOTATION$DIMS_AND_ANNO
  0
POLYLINE
  5
325
  8
_ANNOTATION$DIMS_AND_ANNO
 66
     1
 10
0.0
 20
0.0
 30
0.0
 70
     1
  0
VERTEX
  5
326
  8
_ANNOTATION$DIMS_AND_ANNO
 10
-254.7041902903244
 20
-732.2813953136907
 30
0.0
  0
VERTEX
  5
327
  8
_ANNOTATION$DIMS_AND_ANNO
 10
-254.7347819560288
 20
-731.9317309746606
 30
0.0
  0
VERTEX
  5
328
  8
_ANNOTATION$DIMS_AND_ANNO
 10
-254.852442747142
 20
-731.9420249600245
 30
0.0
  0
VERTEX
  5
329
  8
_ANNOTATION$DIMS_AND_ANNO
 10
-254.8218510814376
 20
-732.2916892990546
 30
0.0
  0
SEQEND
  5
32A
  8
_ANNOTATION$DIMS_AND_ANNO
  0
POLYLINE
  5
32B
  8
_ANNOTATION$DIMS_AND_ANNO
 66
     1
 10
0.0
 20
0.0
 30
0.0
 70
     1
  0
VERTEX
  5
32C
  8
_ANNOTATION$DIMS_AND_ANNO
 10
-253.994946753929
 20
-740.8569699380652
 30
0.0
  0
VERTEX
  5
32D
  8
_ANNOTATION$DIMS_AND_ANNO
 10
-257.6361326199398
 20
-741.1755324231315
 30
0.0
 42
0.414213562372583
  0
VERTEX
  5
32E
  8
_ANNOTATION$DIMS_AND_ANNO
 10
-257.9940219724375
 20
-741.6020483447219
 30
0.0
  0
VERTEX
  5
32F
  8
_ANNOTATION$DIMS_AND_ANNO
 10
-257.9101259917218
 20
-742.5609837922945
 30
0.0
 42
0.4142135623721642
  0
VERTEX
  5
330
  8
_ANNOTATION$DIMS_AND_ANNO
 10
-257.4836100701308
 20
-742.9188731447925
 30
0.0
  0
VERTEX
  5
331
  8
_ANNOTATION$DIMS_AND_ANNO
 10
-251.9553677324619
 20
-742.5983727686419
 30
0.0
 42
-0.014278011174689
  0
VERTEX
  5
332
  8
_ANNOTATION$DIMS_AND_ANNO
 10
-246.5691044570491
 20
-742.5983727686419
 30
0.0
  0
VERTEX
  5
333
  8
_ANNOTATION$DIMS_AND_ANNO
 10
-241.0408621193824
 20
-742.9188731447927
 30
0.0
 42
0.4142135623720751
  0
VERTEX
  5
334
  8
_ANNOTATION$DIMS_AND_ANNO
 10
-240.6143461977919
 20
-742.560983792295
 30
0.0
  0
VERTEX
  5
335
  8
_ANNOTATION$DIMS_AND_ANNO
 10
-240.5304502170763
 20
-741.6020483447223
 30
0.0
 42
0.414213562372979
  0
VERTEX
  5
336
  8
_ANNOTATION$DIMS_AND_ANNO
 10
-240.888339569574
 20
-741.1755324231322
 30
0.0
  0
VERTEX
  5
337
  8
_ANNOTATION$DIMS_AND_ANNO
 10
-244.5349726695067
 20
-740.8564933668495
 30
0.0
 42
-0.9999999999895409
  0
VERTEX
  5
338
  8
_ANNOTATION$DIMS_AND_ANNO
 10
-244.5295254355846
 20
-740.7942311982187
 30
0.0
  0
VERTEX
  5
339
  8
_ANNOTATION$DIMS_AND_ANNO
 10
-244.0596155816244
 20
-740.8353429833194
 30
0.0
 42
0.4400105308900444
  0
VERTEX
  5
33A
  8
_ANNOTATION$DIMS_AND_ANNO
 10
-243.7878266459376
 20
-740.5862943087965
 30
0.0
  0
VERTEX
  5
33B
  8
_ANNOTATION$DIMS_AND_ANNO
 10
-243.7878266459375
 20
-733.902737930801
 30
0.0
 42
0.3888787318530632
  0
VERTEX
  5
33C
  8
_ANNOTATION$DIMS_AND_ANNO
 10
-244.70067090319
 20
-732.9065432327089
 30
0.0
  0
VERTEX
  5
33D
  8
_ANNOTATION$DIMS_AND_ANNO
 10
-249.1750803520089
 20
-732.5150831299643
 30
0.0
 42
0.0436609429078365
  0
VERTEX
  5
33E
  8
_ANNOTATION$DIMS_AND_ANNO
 10
-249.3493918375039
 20
-732.5150831299645
 30
0.0
  0
VERTEX
  5
33F
  8
_ANNOTATION$DIMS_AND_ANNO
 10
-253.8238012863227
 20
-732.9065432327088
 30
0.0
 42
0.3888787318529384
  0
VERTEX
  5
340
  8
_ANNOTATION$DIMS_AND_ANNO
 10
-254.7366455435755
 20
-733.9027379308006
 30
0.0
  0
VERTEX
  5
341
  8
_ANNOTATION$DIMS_AND_ANNO
 10
-254.7366455435755
 20
-740.5862943087963
 30
0.0
 42
0.4400105308887741
  0
VERTEX
  5
342
  8
_ANNOTATION$DIMS_AND_ANNO
 10
-254.4648566078885
 20
-740.835342983319
 30
0.0
  0
VERTEX
  5
343
  8
_ANNOTATION$DIMS_AND_ANNO
 10
-254.0003939878521
 20
-740.7947077694344
 30
0.0
 42
-1.091308501132406
  0
SEQEND
  5
344
  8
_ANNOTATION$DIMS_AND_ANNO
  0
POLYLINE
  5
345
  8
_ANNOTATION$DIMS_AND_ANNO
 66
     1
 10
0.0
 20
0.0
 30
0.0
 70
     1
  0
VERTEX
  5
346
  8
_ANNOTATION$DIMS_AND_ANNO
 10
-256.9042345725951
 20
-742.2106626030089
 30
0.0
  0
VERTEX
  5
347
  8
_ANNOTATION$DIMS_AND_ANNO
 10
-257.0218953637083
 20
-742.2209565883729
 30
0.0
 42
-0.414213562375787
  0
VERTEX
  5
348
  8
_ANNOTATION$DIMS_AND_ANNO
 10
-257.0645469558675
 20
-742.1851676531231
 30
0.0
  0
VERTEX
  5
349
  8
_ANNOTATION$DIMS_AND_ANNO
 10
-257.0960293944386
 20
-741.8253217336352
 30
0.0
 42
-0.414213562378443
  0
VERTEX
  5
34A
  8
_ANNOTATION$DIMS_AND_ANNO
 10
-257.0602404591888
 20
-741.7826701414767
 30
0.0
  0
VERTEX
  5
34B
  8
_ANNOTATION$DIMS_AND_ANNO
 10
-256.9425796680756
 20
-741.7723761561123
 30
0.0
 42
-0.4142135623824639
  0
VERTEX
  5
34C
  8
_ANNOTATION$DIMS_AND_ANNO
 10
-256.8999280759166
 20
-741.8081650913621
 30
0.0
  0
VERTEX
  5
34D
  8
_ANNOTATION$DIMS_AND_ANNO
 10
-256.8684456373452
 20
-742.1680110108499
 30
0.0
 42
-0.4142135623663236
  0
SEQEND
  5
34E
  8
_ANNOTATION$DIMS_AND_ANNO
  0
POLYLINE
  5
34F
  8
_ANNOTATION$DIMS_AND_ANNO
 66
     1
 10
0.0
 20
0.0
 30
0.0
 70
     1
  0
VERTEX
  5
350
  8
_ANNOTATION$DIMS_AND_ANNO
 10
-257.4023319216409
 20
-742.2542404743828
 30
0.0
  0
VERTEX
  5
351
  8
_ANNOTATION$DIMS_AND_ANNO
 10
-257.5199927127541
 20
-742.2645344597468
 30
0.0
 42
-0.4142135623732426
  0
VERTEX
  5
352
  8
_ANNOTATION$DIMS_AND_ANNO
 10
-257.562644304913
 20
-742.228745524497
 30
0.0
  0
VERTEX
  5
353
  8
_ANNOTATION$DIMS_AND_ANNO
 10
-257.5941267434845
 20
-741.8688996050091
 30
0.0
 42
-0.4142135623710024
  0
VERTEX
  5
354
  8
_ANNOTATION$DIMS_AND_ANNO
 10
-257.5583378082346
 20
-741.8262480128499
 30
0.0
  0
VERTEX
  5
355
  8
_ANNOTATION$DIMS_AND_ANNO
 10
-257.4406770171214
 20
-741.8159540274861
 30
0.0
 42
-0.4142135623809205
  0
VERTEX
  5
356
  8
_ANNOTATION$DIMS_AND_ANNO
 10
-257.3980254249625
 20
-741.851742962736
 30
0.0
  0
VERTEX
  5
357
  8
_ANNOTATION$DIMS_AND_ANNO
 10
-257.3665429863912
 20
-742.2115888822237
 30
0.0
 42
-0.4142135623738865
  0
SEQEND
  5
358
  8
_ANNOTATION$DIMS_AND_ANNO
  0
POLYLINE
  5
359
  8
_ANNOTATION$DIMS_AND_ANNO
 66
     1
 10
0.0
 20
0.0
 30
0.0
 70
     1
  0
VERTEX
  5
35A
  8
_ANNOTATION$DIMS_AND_ANNO
 10
-241.6202376169182
 20
-742.2106626030092
 30
0.0
 42
-0.4142135623693626
  0
VERTEX
  5
35B
  8
_ANNOTATION$DIMS_AND_ANNO
 10
-241.6560265521679
 20
-742.16801101085
 30
0.0
  0
VERTEX
  5
35C
  8
_ANNOTATION$DIMS_AND_ANNO
 10
-241.6245441135968
 20
-741.8081650913623
 30
0.0
 42
-0.4142135623600711
  0
VERTEX
  5
35D
  8
_ANNOTATION$DIMS_AND_ANNO
 10
-241.5818925214377
 20
-741.7723761561126
 30
0.0
  0
VERTEX
  5
35E
  8
_ANNOTATION$DIMS_AND_ANNO
 10
-241.4642317303246
 20
-741.7826701414765
 30
0.0
 42
-0.4142135623730831
  0
VERTEX
  5
35F
  8
_ANNOTATION$DIMS_AND_ANNO
 10
-241.4284427950745
 20
-741.8253217336354
 30
0.0
  0
VERTEX
  5
360
  8
_ANNOTATION$DIMS_AND_ANNO
 10
-241.4599252336461
 20
-742.1851676531234
 30
0.0
 42
-0.414213562380756
  0
VERTEX
  5
361
  8
_ANNOTATION$DIMS_AND_ANNO
 10
-241.5025768258051
 20
-742.220956588373
 30
0.0
  0
SEQEND
  5
362
  8
_ANNOTATION$DIMS_AND_ANNO
  0
POLYLINE
  5
363
  8
_ANNOTATION$DIMS_AND_ANNO
 66
     1
 10
0.0
 20
0.0
 30
0.0
 70
     1
  0
VERTEX
  5
364
  8
_ANNOTATION$DIMS_AND_ANNO
 10
-241.1221402678723
 20
-742.254240474383
 30
0.0
 42
-0.4142135623770376
  0
VERTEX
  5
365
  8
_ANNOTATION$DIMS_AND_ANNO
 10
-241.157929203122
 20
-742.2115888822241
 30
0.0
  0
VERTEX
  5
366
  8
_ANNOTATION$DIMS_AND_ANNO
 10
-241.1264467645507
 20
-741.8517429627361
 30
0.0
 42
-0.4142135623718199
  0
VERTEX
  5
367
  8
_ANNOTATION$DIMS_AND_ANNO
 10
-241.0837951723918
 20
-741.8159540274867
 30
0.0
  0
VERTEX
  5
368
  8
_ANNOTATION$DIMS_AND_ANNO
 10
-240.9661343812787
 20
-741.8262480128503
 30
0.0
 42
-0.4142135623906404
  0
VERTEX
  5
369
  8
_ANNOTATION$DIMS_AND_ANNO
 10
-240.9303454460293
 20
-741.8688996050095
 30
0.0
  0
VERTEX
  5
36A
  8
_ANNOTATION$DIMS_AND_ANNO
 10
-240.9618278846002
 20
-742.2287455244972
 30
0.0
 42
-0.414213562372475
  0
VERTEX
  5
36B
  8
_ANNOTATION$DIMS_AND_ANNO
 10
-241.0044794767592
 20
-742.2645344597469
 30
0.0
  0
SEQEND
  5
36C
  8
_ANNOTATION$DIMS_AND_ANNO
  0
POLYLINE
  5
36D
  8
_ANNOTATION$DIMS_AND_ANNO
 66
     1
 10
0.0
 20
0.0
 30
0.0
 70
     1
  0
VERTEX
  5
36E
  8
_ANNOTATION$DIMS_AND_ANNO
 10
-256.0210117542557
 20
-742.0887403964991
 30
0.0
  0
VERTEX
  5
36F
  8
_ANNOTATION$DIMS_AND_ANNO
 10
-256.138672545369
 20
-742.0990343818631
 30
0.0
  0
VERTEX
  5
370
  8
_ANNOTATION$DIMS_AND_ANNO
 10
-256.1692642110735
 20
-741.7493700428329
 30
0.0
  0
VERTEX
  5
371
  8
_ANNOTATION$DIMS_AND_ANNO
 10
-256.0516034199602
 20
-741.739076057469
 30
0.0
  0
SEQEND
  5
372
  8
_ANNOTATION$DIMS_AND_ANNO
  0
POLYLINE
  5
373
  8
_ANNOTATION$DIMS_AND_ANNO
 66
     1
 10
0.0
 20
0.0
 30
0.0
 70
     1
  0
VERTEX
  5
374
  8
_ANNOTATION$DIMS_AND_ANNO
 10
-254.7691007968264
 20
-741.6268716170026
 30
0.0
  0
VERTEX
  5
375
  8
_ANNOTATION$DIMS_AND_ANNO
 10
-254.6514400057132
 20
-741.6165776316387
 30
0.0
  0
VERTEX
  5
376
  8
_ANNOTATION$DIMS_AND_ANNO
 10
-254.6208483400087
 20
-741.9662419706689
 30
0.0
  0
VERTEX
  5
377
  8
_ANNOTATION$DIMS_AND_ANNO
 10
-254.7385091311219
 20
-741.9765359560328
 30
0.0
  0
SEQEND
  5
378
  8
_ANNOTATION$DIMS_AND_ANNO
  0
POLYLINE
  5
379
  8
_ANNOTATION$DIMS_AND_ANNO
 66
     1
 10
0.0
 20
0.0
 30
0.0
 70
     1
  0
VERTEX
  5
37A
  8
_ANNOTATION$DIMS_AND_ANNO
 10
-242.503460435257
 20
-742.0887403964994
 30
0.0
  0
VERTEX
  5
37B
  8
_ANNOTATION$DIMS_AND_ANNO
 10
-242.4728687695526
 20
-741.7390760574692
 30
0.0
  0
VERTEX
  5
37C
  8
_ANNOTATION$DIMS_AND_ANNO
 10
-242.3552079784394
 20
-741.7493700428331
 30
0.0
  0
VERTEX
  5
37D
  8
_ANNOTATION$DIMS_AND_ANNO
 10
-242.3857996441438
 20
-742.0990343818634
 30
0.0
  0
SEQEND
  5
37E
  8
_ANNOTATION$DIMS_AND_ANNO
  0
POLYLINE
  5
37F
  8
_ANNOTATION$DIMS_AND_ANNO
 66
     1
 10
0.0
 20
0.0
 30
0.0
 70
     1
  0
VERTEX
  5
380
  8
_ANNOTATION$DIMS_AND_ANNO
 10
-243.7553713926865
 20
-741.6268716170027
 30
0.0
  0
VERTEX
  5
381
  8
_ANNOTATION$DIMS_AND_ANNO
 10
-243.7859630583909
 20
-741.9765359560329
 30
0.0
  0
VERTEX
  5
382
  8
_ANNOTATION$DIMS_AND_ANNO
 10
-243.9036238495041
 20
-741.966241970669
 30
0.0
  0
VERTEX
  5
383
  8
_ANNOTATION$DIMS_AND_ANNO
 10
-243.8730321837997
 20
-741.6165776316388
 30
0.0
  0
SEQEND
  5
384
  8
_ANNOTATION$DIMS_AND_ANNO
  0
POLYLINE
  5
385
  8
_ANNOTATION$DIMS_AND_ANNO
 66
     1
 10
0.0
 20
0.0
 30
0.0
 70
     1
  0
VERTEX
  5
386
  8
_ANNOTATION$DIMS_AND_ANNO
 10
-243.0461278562912
 20
-733.0512969926283
 30
0.0
  0
VERTEX
  5
387
  8
_ANNOTATION$DIMS_AND_ANNO
 10
-246.687313722302
 20
-732.732734507562
 30
0.0
 42
-0.4142135623727881
  0
VERTEX
  5
388
  8
_ANNOTATION$DIMS_AND_ANNO
 10
-247.0452030747996
 20
-732.3062185859717
 30
0.0
  0
VERTEX
  5
389
  8
_ANNOTATION$DIMS_AND_ANNO
 10
-246.961307094084
 20
-731.347283138399
 30
0.0
 42
-0.4142135623724413
  0
VERTEX
  5
38A
  8
_ANNOTATION$DIMS_AND_ANNO
 10
-246.534791172493
 20
-730.9893937859008
 30
0.0
  0
VERTEX
  5
38B
  8
_ANNOTATION$DIMS_AND_ANNO
 10
-241.006548834824
 20
-731.3098941620516
 30
0.0
 42
0.014278011174689
  0
VERTEX
  5
38C
  8
_ANNOTATION$DIMS_AND_ANNO
 10
-235.6202855594113
 20
-731.3098941620516
 30
0.0
  0
VERTEX
  5
38D
  8
_ANNOTATION$DIMS_AND_ANNO
 10
-230.0920432217446
 20
-730.9893937859008
 30
0.0
 42
-0.4142135623717227
  0
VERTEX
  5
38E
  8
_ANNOTATION$DIMS_AND_ANNO
 10
-229.6655273001541
 20
-731.3472831383984
 30
0.0
  0
VERTEX
  5
38F
  8
_ANNOTATION$DIMS_AND_ANNO
 10
-229.5816313194384
 20
-732.3062185859711
 30
0.0
 42
-0.4142135623733591
  0
VERTEX
  5
390
  8
_ANNOTATION$DIMS_AND_ANNO
 10
-229.9395206719362
 20
-732.732734507561
 30
0.0
  0
VERTEX
  5
391
  8
_ANNOTATION$DIMS_AND_ANNO
 10
-233.5861537718688
 20
-733.051773563844
 30
0.0
 42
1.000000000001812
  0
VERTEX
  5
392
  8
_ANNOTATION$DIMS_AND_ANNO
 10
-233.5807065379468
 20
-733.1140357324747
 30
0.0
  0
VERTEX
  5
393
  8
_ANNOTATION$DIMS_AND_ANNO
 10
-233.1107966839866
 20
-733.0729239473741
 30
0.0
 42
-0.4400105308926524
  0
VERTEX
  5
394
  8
_ANNOTATION$DIMS_AND_ANNO
 10
-232.8390077482998
 20
-733.321972621897
 30
0.0
  0
VERTEX
  5
395
  8
_ANNOTATION$DIMS_AND_ANNO
 10
-232.8390077482997
 20
-740.0055289998925
 30
0.0
 42
-0.3888787318530073
  0
VERTEX
  5
396
  8
_ANNOTATION$DIMS_AND_ANNO
 10
-233.7518520055521
 20
-741.0017236979845
 30
0.0
  0
VERTEX
  5
397
  8
_ANNOTATION$DIMS_AND_ANNO
 10
-238.2262614543711
 20
-741.3931838007292
 30
0.0
 42
-0.0436609429091494
  0
VERTEX
  5
398
  8
_ANNOTATION$DIMS_AND_ANNO
 10
-238.400572939866
 20
-741.3931838007289
 30
0.0
  0
VERTEX
  5
399
  8
_ANNOTATION$DIMS_AND_ANNO
 10
-242.8749823886849
 20
-741.0017236979846
 30
0.0
 42
-0.3888787318531074
  0
VERTEX
  5
39A
  8
_ANNOTATION$DIMS_AND_ANNO
 10
-243.7878266459374
 20
-740.0055289998928
 30
0.0
  0
VERTEX
  5
39B
  8
_ANNOTATION$DIMS_AND_ANNO
 10
-243.7878266459377
 20
-733.3219726218972
 30
0.0
 42
-0.4400105308908075
  0
VERTEX
  5
39C
  8
_ANNOTATION$DIMS_AND_ANNO
 10
-243.5160377102506
 20
-733.0729239473744
 30
0.0
  0
VERTEX
  5
39D
  8
_ANNOTATION$DIMS_AND_ANNO
 10
-243.0515750902142
 20
-733.1135591612589
 30
0.0
 42
1.091308501133625
  0
SEQEND
  5
39E
  8
_ANNOTATION$DIMS_AND_ANNO
  0
POLYLINE
  5
39F
  8
_ANNOTATION$DIMS_AND_ANNO
 66
     1
 10
0.0
 20
0.0
 30
0.0
 70
     1
  0
VERTEX
  5
3A0
  8
_ANNOTATION$DIMS_AND_ANNO
 10
-245.9554156749573
 20
-731.6976043276845
 30
0.0
  0
VERTEX
  5
3A1
  8
_ANNOTATION$DIMS_AND_ANNO
 10
-246.0730764660705
 20
-731.6873103423205
 30
0.0
 42
0.4142135623798804
  0
VERTEX
  5
3A2
  8
_ANNOTATION$DIMS_AND_ANNO
 10
-246.1157280582295
 20
-731.7230992775703
 30
0.0
  0
VERTEX
  5
3A3
  8
_ANNOTATION$DIMS_AND_ANNO
 10
-246.1472104968008
 20
-732.0829451970583
 30
0.0
 42
0.414213562373557
  0
VERTEX
  5
3A4
  8
_ANNOTATION$DIMS_AND_ANNO
 10
-246.111421561551
 20
-732.1255967892168
 30
0.0
  0
VERTEX
  5
3A5
  8
_ANNOTATION$DIMS_AND_ANNO
 10
-245.9937607704378
 20
-732.1358907745812
 30
0.0
 42
0.4142135623777058
  0
VERTEX
  5
3A6
  8
_ANNOTATION$DIMS_AND_ANNO
 10
-245.9511091782788
 20
-732.1001018393314
 30
0.0
  0
VERTEX
  5
3A7
  8
_ANNOTATION$DIMS_AND_ANNO
 10
-245.9196267397074
 20
-731.7402559198435
 30
0.0
 42
0.4142135623708848
  0
SEQEND
  5
3A8
  8
_ANNOTATION$DIMS_AND_ANNO
  0
POLYLINE
  5
3A9
  8
_ANNOTATION$DIMS_AND_ANNO
 66
     1
 10
0.0
 20
0.0
 30
0.0
 70
     1
  0
VERTEX
  5
3AA
  8
_ANNOTATION$DIMS_AND_ANNO
 10
-246.4535130240031
 20
-731.6540264563107
 30
0.0
  0
VERTEX
  5
3AB
  8
_ANNOTATION$DIMS_AND_ANNO
 10
-246.5711738151163
 20
-731.6437324709467
 30
0.0
 42
0.4142135623823665
  0
VERTEX
  5
3AC
  8
_ANNOTATION$DIMS_AND_ANNO
 10
-246.6138254072752
 20
-731.6795214061965
 30
0.0
  0
VERTEX
  5
3AD
  8
_ANNOTATION$DIMS_AND_ANNO
 10
-246.6453078458467
 20
-732.0393673256843
 30
0.0
 42
0.4142135623635825
  0
VERTEX
  5
3AE
  8
_ANNOTATION$DIMS_AND_ANNO
 10
-246.6095189105968
 20
-732.0820189178435
 30
0.0
  0
VERTEX
  5
3AF
  8
_ANNOTATION$DIMS_AND_ANNO
 10
-246.4918581194836
 20
-732.0923129032074
 30
0.0
 42
0.4142135623762598
  0
VERTEX
  5
3B0
  8
_ANNOTATION$DIMS_AND_ANNO
 10
-246.4492065273246
 20
-732.0565239679574
 30
0.0
  0
VERTEX
  5
3B1
  8
_ANNOTATION$DIMS_AND_ANNO
 10
-246.4177240887534
 20
-731.6966780484697
 30
0.0
 42
0.4142135623789106
  0
SEQEND
  5
3B2
  8
_ANNOTATION$DIMS_AND_ANNO
  0
POLYLINE
  5
3B3
  8
_ANNOTATION$DIMS_AND_ANNO
 66
     1
 10
0.0
 20
0.0
 30
0.0
 70
     1
  0
VERTEX
  5
3B4
  8
_ANNOTATION$DIMS_AND_ANNO
 10
-230.6714187192804
 20
-731.6976043276843
 30
0.0
 42
0.4142135623713671
  0
VERTEX
  5
3B5
  8
_ANNOTATION$DIMS_AND_ANNO
 10
-230.7072076545299
 20
-731.7402559198433
 30
0.0
  0
VERTEX
  5
3B6
  8
_ANNOTATION$DIMS_AND_ANNO
 10
-230.6757252159589
 20
-732.1001018393312
 30
0.0
 42
0.4142135623662121
  0
VERTEX
  5
3B7
  8
_ANNOTATION$DIMS_AND_ANNO
 10
-230.6330736237999
 20
-732.135890774581
 30
0.0
  0
VERTEX
  5
3B8
  8
_ANNOTATION$DIMS_AND_ANNO
 10
-230.5154128326867
 20
-732.125596789217
 30
0.0
 42
0.4142135623765347
  0
VERTEX
  5
3B9
  8
_ANNOTATION$DIMS_AND_ANNO
 10
-230.4796238974369
 20
-732.0829451970582
 30
0.0
  0
VERTEX
  5
3BA
  8
_ANNOTATION$DIMS_AND_ANNO
 10
-230.5111063360082
 20
-731.7230992775701
 30
0.0
 42
0.414213562380756
  0
VERTEX
  5
3BB
  8
_ANNOTATION$DIMS_AND_ANNO
 10
-230.5537579281672
 20
-731.6873103423204
 30
0.0
  0
SEQEND
  5
3BC
  8
_ANNOTATION$DIMS_AND_ANNO
  0
POLYLINE
  5
3BD
  8
_ANNOTATION$DIMS_AND_ANNO
 66
     1
 10
0.0
 20
0.0
 30
0.0
 70
     1
  0
VERTEX
  5
3BE
  8
_ANNOTATION$DIMS_AND_ANNO
 10
-230.1733213702345
 20
-731.6540264563105
 30
0.0
 42
0.4142135623708763
  0
VERTEX
  5
3BF
  8
_ANNOTATION$DIMS_AND_ANNO
 10
-230.2091103054842
 20
-731.6966780484695
 30
0.0
  0
VERTEX
  5
3C0
  8
_ANNOTATION$DIMS_AND_ANNO
 10
-230.1776278669129
 20
-732.0565239679573
 30
0.0
 42
0.4142135623741475
  0
VERTEX
  5
3C1
  8
_ANNOTATION$DIMS_AND_ANNO
 10
-230.134976274754
 20
-732.0923129032069
 30
0.0
  0
VERTEX
  5
3C2
  8
_ANNOTATION$DIMS_AND_ANNO
 10
-230.0173154836408
 20
-732.0820189178431
 30
0.0
 42
0.4142135623849194
  0
VERTEX
  5
3C3
  8
_ANNOTATION$DIMS_AND_ANNO
 10
-229.9815265483915
 20
-732.0393673256841
 30
0.0
  0
VERTEX
  5
3C4
  8
_ANNOTATION$DIMS_AND_ANNO
 10
-230.0130089869623
 20
-731.6795214061963
 30
0.0
 42
0.4142135623730001
  0
VERTEX
  5
3C5
  8
_ANNOTATION$DIMS_AND_ANNO
 10
-230.0556605791213
 20
-731.6437324709466
 30
0.0
  0
SEQEND
  5
3C6
  8
_ANNOTATION$DIMS_AND_ANNO
  0
POLYLINE
  5
3C7
  8
_ANNOTATION$DIMS_AND_ANNO
 66
     1
 10
0.0
 20
0.0
 30
0.0
 70
     1
  0
VERTEX
  5
3C8
  8
_ANNOTATION$DIMS_AND_ANNO
 10
-245.0721928566179
 20
-731.8195265341943
 30
0.0
  0
VERTEX
  5
3C9
  8
_ANNOTATION$DIMS_AND_ANNO
 10
-245.1898536477312
 20
-731.8092325488303
 30
0.0
  0
VERTEX
  5
3CA
  8
_ANNOTATION$DIMS_AND_ANNO
 10
-245.2204453134357
 20
-732.1588968878606
 30
0.0
  0
VERTEX
  5
3CB
  8
_ANNOTATION$DIMS_AND_ANNO
 10
-245.1027845223224
 20
-732.1691908732245
 30
0.0
  0
SEQEND
  5
3CC
  8
_ANNOTATION$DIMS_AND_ANNO
  0
POLYLINE
  5
3CD
  8
_ANNOTATION$DIMS_AND_ANNO
 66
     1
 10
0.0
 20
0.0
 30
0.0
 70
     1
  0
VERTEX
  5
3CE
  8
_ANNOTATION$DIMS_AND_ANNO
 10
-243.8202818991886
 20
-732.2813953136908
 30
0.0
  0
VERTEX
  5
3CF
  8
_ANNOTATION$DIMS_AND_ANNO
 10
-243.7026211080754
 20
-732.2916892990547
 30
0.0
  0
VERTEX
  5
3D0
  8
_ANNOTATION$DIMS_AND_ANNO
 10
-243.6720294423709
 20
-731.9420249600246
 30
0.0
  0
VERTEX
  5
3D1
  8
_ANNOTATION$DIMS_AND_ANNO
 10
-243.7896902334841
 20
-731.9317309746607
 30
0.0
  0
SEQEND
  5
3D2
  8
_ANNOTATION$DIMS_AND_ANNO
  0
POLYLINE
  5
3D3
  8
_ANNOTATION$DIMS_AND_ANNO
 66
     1
 10
0.0
 20
0.0
 30
0.0
 70
     1
  0
VERTEX
  5
3D4
  8
_ANNOTATION$DIMS_AND_ANNO
 10
-231.5546415376191
 20
-731.8195265341941
 30
0.0
  0
VERTEX
  5
3D5
  8
_ANNOTATION$DIMS_AND_ANNO
 10
-231.5240498719147
 20
-732.1691908732242
 30
0.0
  0
VERTEX
  5
3D6
  8
_ANNOTATION$DIMS_AND_ANNO
 10
-231.4063890808015
 20
-732.1588968878604
 30
0.0
  0
VERTEX
  5
3D7
  8
_ANNOTATION$DIMS_AND_ANNO
 10
-231.4369807465059
 20
-731.8092325488301
 30
0.0
  0
SEQEND
  5
3D8
  8
_ANNOTATION$DIMS_AND_ANNO
  0
POLYLINE
  5
3D9
  8
_ANNOTATION$DIMS_AND_ANNO
 66
     1
 10
0.0
 20
0.0
 30
0.0
 70
     1
  0
VERTEX
  5
3DA
  8
_ANNOTATION$DIMS_AND_ANNO
 10
-232.8065524950487
 20
-732.2813953136907
 30
0.0
  0
VERTEX
  5
3DB
  8
_ANNOTATION$DIMS_AND_ANNO
 10
-232.837144160753
 20
-731.9317309746606
 30
0.0
  0
VERTEX
  5
3DC
  8
_ANNOTATION$DIMS_AND_ANNO
 10
-232.9548049518662
 20
-731.9420249600245
 30
0.0
  0
VERTEX
  5
3DD
  8
_ANNOTATION$DIMS_AND_ANNO
 10
-232.9242132861618
 20
-732.2916892990546
 30
0.0
  0
SEQEND
  5
3DE
  8
_ANNOTATION$DIMS_AND_ANNO
  0
POLYLINE
  5
3DF
  8
_ANNOTATION$DIMS_AND_ANNO
 62
     3
 66
     1
 10
0.0
 20
0.0
 30
0.0
 70
     1
  0
VERTEX
  5
3E0
  8
_ANNOTATION$DIMS_AND_ANNO
 62
     3
 10
-227.7223990331105
 20
-723.0077901357474
 30
0.0
 42
0.4142135623733408
  0
VERTEX
  5
3E1
  8
_ANNOTATION$DIMS_AND_ANNO
 62
     3
 10
-228.0973990331105
 20
-722.6327901357477
 30
0.0
  0
VERTEX
  5
3E2
  8
_ANNOTATION$DIMS_AND_ANNO
 62
     3
 10
-229.097399033167
 20
-722.6327901357474
 30
0.0
 42
0.414213562372193
  0
VERTEX
  5
3E3
  8
_ANNOTATION$DIMS_AND_ANNO
 62
     3
 10
-229.4723990331668
 20
-723.0077901357474
 30
0.0
  0
VERTEX
  5
3E4
  8
_ANNOTATION$DIMS_AND_ANNO
 62
     3
 10
-229.4723990331674
 20
-734.389152199658
 30
0.0
 42
0.4142135623723485
  0
VERTEX
  5
3E5
  8
_ANNOTATION$DIMS_AND_ANNO
 62
     3
 10
-229.0973990331673
 20
-734.7641521996579
 30
0.0
  0
VERTEX
  5
3E6
  8
_ANNOTATION$DIMS_AND_ANNO
 62
     3
 10
-228.0973990331111
 20
-734.7641521996582
 30
0.0
 42
0.414213562372258
  0
VERTEX
  5
3E7
  8
_ANNOTATION$DIMS_AND_ANNO
 62
     3
 10
-227.722399033111
 20
-734.3891521996582
 30
0.0
  0
SEQEND
  5
3E8
  8
_ANNOTATION$DIMS_AND_ANNO
 62
     3
  0
POLYLINE
  5
3E9
  8
_ANNOTATION$DIMS_AND_ANNO
 62
     3
 66
     1
 10
0.0
 20
0.0
 30
0.0
 70
     1
  0
VERTEX
  5
3EA
  8
_ANNOTATION$DIMS_AND_ANNO
 62
     3
 10
-228.8073990331733
 20
-732.7493096045174
 30
0.0
 42
-0.2401375415840468
  0
VERTEX
  5
3EB
  8
_ANNOTATION$DIMS_AND_ANNO
 62
     3
 10
-228.7945117013777
 20
-732.7240237405531
 30
0.0
  0
VERTEX
  5
3EC
  8
_ANNOTATION$DIMS_AND_ANNO
 62
     3
 10
-228.6212368010994
 20
-732.59819100229
 30
0.0
 42
-0.1583274682931982
  0
VERTEX
  5
3ED
  8
_ANNOTATION$DIMS_AND_ANNO
 62
     3
 10
-228.602874132895
 20
-732.5922268662544
 30
0.0
  0
VERTEX
  5
3EE
  8
_ANNOTATION$DIMS_AND_ANNO
 62
     3
 10
-228.5919239334515
 20
-732.5922268662544
 30
0.0
 42
-0.1583274682749957
  0
VERTEX
  5
3EF
  8
_ANNOTATION$DIMS_AND_ANNO
 62
     3
 10
-228.5735612652473
 20
-732.5981910022902
 30
0.0
  0
VERTEX
  5
3F0
  8
_ANNOTATION$DIMS_AND_ANNO
 62
     3
 10
-228.4002863649689
 20
-732.7240237405532
 30
0.0
 42
-0.240137541593344
  0
VERTEX
  5
3F1
  8
_ANNOTATION$DIMS_AND_ANNO
 62
     3
 10
-228.3873990331736
 20
-732.7493096045174
 30
0.0
  0
VERTEX
  5
3F2
  8
_ANNOTATION$DIMS_AND_ANNO
 62
     3
 10
-228.3873990331733
 20
-732.8036325585132
 30
0.0
  0
VERTEX
  5
3F3
  8
_ANNOTATION$DIMS_AND_ANNO
 62
     3
 10
-228.4399187182127
 20
-732.8036325585132
 30
0.0
  0
VERTEX
  5
3F4
  8
_ANNOTATION$DIMS_AND_ANNO
 62
     3
 10
-228.4399187182127
 20
-733.031148333057
 30
0.0
  0
VERTEX
  5
3F5
  8
_ANNOTATION$DIMS_AND_ANNO
 62
     3
 10
-228.4009187182127
 20
-733.031148333057
 30
0.0
  0
VERTEX
  5
3F6
  8
_ANNOTATION$DIMS_AND_ANNO
 62
     3
 10
-228.4009187182127
 20
-732.8426325585132
 30
0.0
  0
VERTEX
  5
3F7
  8
_ANNOTATION$DIMS_AND_ANNO
 62
     3
 10
-228.3483990331733
 20
-732.8426325585132
 30
0.0
  0
VERTEX
  5
3F8
  8
_ANNOTATION$DIMS_AND_ANNO
 62
     3
 10
-228.3483990331733
 20
-732.7493096045174
 30
0.0
 42
0.2401375415946592
  0
VERTEX
  5
3F9
  8
_ANNOTATION$DIMS_AND_ANNO
 62
     3
 10
-228.3773697550495
 20
-732.6924669823258
 30
0.0
  0
VERTEX
  5
3FA
  8
_ANNOTATION$DIMS_AND_ANNO
 62
     3
 10
-228.5506446553283
 20
-732.5666342440629
 30
0.0
 42
0.1583274682960163
  0
VERTEX
  5
3FB
  8
_ANNOTATION$DIMS_AND_ANNO
 62
     3
 10
-228.5919239334517
 20
-732.5532268662544
 30
0.0
  0
VERTEX
  5
3FC
  8
_ANNOTATION$DIMS_AND_ANNO
 62
     3
 10
-228.602874132895
 20
-732.5532268662544
 30
0.0
 42
0.1583274682819922
  0
VERTEX
  5
3FD
  8
_ANNOTATION$DIMS_AND_ANNO
 62
     3
 10
-228.6441534110182
 20
-732.5666342440627
 30
0.0
  0
VERTEX
  5
3FE
  8
_ANNOTATION$DIMS_AND_ANNO
 62
     3
 10
-228.8174283112969
 20
-732.6924669823261
 30
0.0
 42
0.2401375416022879
  0
VERTEX
  5
3FF
  8
_ANNOTATION$DIMS_AND_ANNO
 62
     3
 10
-228.8463990331731
 20
-732.7493096045174
 30
0.0
  0
VERTEX
  5
400
  8
_ANNOTATION$DIMS_AND_ANNO
 62
     3
 10
-228.8463990331733
 20
-732.8426325585132
 30
0.0
  0
VERTEX
  5
401
  8
_ANNOTATION$DIMS_AND_ANNO
 62
     3
 10
-228.7938793481339
 20
-732.8426325585132
 30
0.0
  0
VERTEX
  5
402
  8
_ANNOTATION$DIMS_AND_ANNO
 62
     3
 10
-228.7938793481339
 20
-733.031148333057
 30
0.0
  0
VERTEX
  5
403
  8
_ANNOTATION$DIMS_AND_ANNO
 62
     3
 10
-228.754879348134
 20
-733.031148333057
 30
0.0
  0
VERTEX
  5
404
  8
_ANNOTATION$DIMS_AND_ANNO
 62
     3
 10
-228.754879348134
 20
-732.8036325585132
 30
0.0
  0
VERTEX
  5
405
  8
_ANNOTATION$DIMS_AND_ANNO
 62
     3
 10
-228.8073990331733
 20
-732.8036325585132
 30
0.0
  0
SEQEND
  5
406
  8
_ANNOTATION$DIMS_AND_ANNO
 62
     3
  0
POLYLINE
  5
407
  8
_ANNOTATION$DIMS_AND_ANNO
 62
     3
 66
     1
 10
0.0
 20
0.0
 30
0.0
 70
     1
  0
VERTEX
  5
408
  8
_ANNOTATION$DIMS_AND_ANNO
 62
     3
 10
-228.8073990331733
 20
-734.154821415541
 30
0.0
 42
-0.240137541597427
  0
VERTEX
  5
409
  8
_ANNOTATION$DIMS_AND_ANNO
 62
     3
 10
-228.7945117013777
 20
-734.1295355515769
 30
0.0
  0
VERTEX
  5
40A
  8
_ANNOTATION$DIMS_AND_ANNO
 62
     3
 10
-228.6212368010994
 20
-734.0037028133137
 30
0.0
 42
-0.1583274682888558
  0
VERTEX
  5
40B
  8
_ANNOTATION$DIMS_AND_ANNO
 62
     3
 10
-228.602874132895
 20
-733.997738677278
 30
0.0
  0
VERTEX
  5
40C
  8
_ANNOTATION$DIMS_AND_ANNO
 62
     3
 10
-228.5919239334515
 20
-733.997738677278
 30
0.0
 42
-0.1583274682907995
  0
VERTEX
  5
40D
  8
_ANNOTATION$DIMS_AND_ANNO
 62
     3
 10
-228.5735612652473
 20
-734.0037028133139
 30
0.0
  0
VERTEX
  5
40E
  8
_ANNOTATION$DIMS_AND_ANNO
 62
     3
 10
-228.4002863649689
 20
-734.1295355515769
 30
0.0
 42
-0.2401375415887518
  0
VERTEX
  5
40F
  8
_ANNOTATION$DIMS_AND_ANNO
 62
     3
 10
-228.3873990331734
 20
-734.154821415541
 30
0.0
  0
VERTEX
  5
410
  8
_ANNOTATION$DIMS_AND_ANNO
 62
     3
 10
-228.3873990331733
 20
-734.2091443695368
 30
0.0
  0
VERTEX
  5
411
  8
_ANNOTATION$DIMS_AND_ANNO
 62
     3
 10
-228.4399187182127
 20
-734.2091443695368
 30
0.0
  0
VERTEX
  5
412
  8
_ANNOTATION$DIMS_AND_ANNO
 62
     3
 10
-228.4399187182127
 20
-734.4366601440805
 30
0.0
  0
VERTEX
  5
413
  8
_ANNOTATION$DIMS_AND_ANNO
 62
     3
 10
-228.4009187182127
 20
-734.4366601440805
 30
0.0
  0
VERTEX
  5
414
  8
_ANNOTATION$DIMS_AND_ANNO
 62
     3
 10
-228.4009187182127
 20
-734.2481443695368
 30
0.0
  0
VERTEX
  5
415
  8
_ANNOTATION$DIMS_AND_ANNO
 62
     3
 10
-228.3483990331733
 20
-734.2481443695368
 30
0.0
  0
VERTEX
  5
416
  8
_ANNOTATION$DIMS_AND_ANNO
 62
     3
 10
-228.3483990331734
 20
-734.154821415541
 30
0.0
 42
0.2401375415931405
  0
VERTEX
  5
417
  8
_ANNOTATION$DIMS_AND_ANNO
 62
     3
 10
-228.3773697550498
 20
-734.0979787933496
 30
0.0
  0
VERTEX
  5
418
  8
_ANNOTATION$DIMS_AND_ANNO
 62
     3
 10
-228.5506446553283
 20
-733.9721460550865
 30
0.0
 42
0.1583274682978698
  0
VERTEX
  5
419
  8
_ANNOTATION$DIMS_AND_ANNO
 62
     3
 10
-228.5919239334517
 20
-733.9587386772779
 30
0.0
  0
VERTEX
  5
41A
  8
_ANNOTATION$DIMS_AND_ANNO
 62
     3
 10
-228.602874132895
 20
-733.958738677278
 30
0.0
 42
0.1583274682774908
  0
VERTEX
  5
41B
  8
_ANNOTATION$DIMS_AND_ANNO
 62
     3
 10
-228.6441534110181
 20
-733.9721460550863
 30
0.0
  0
VERTEX
  5
41C
  8
_ANNOTATION$DIMS_AND_ANNO
 62
     3
 10
-228.8174283112969
 20
-734.0979787933495
 30
0.0
 42
0.2401375416033331
  0
VERTEX
  5
41D
  8
_ANNOTATION$DIMS_AND_ANNO
 62
     3
 10
-228.8463990331734
 20
-734.1548214155409
 30
0.0
  0
VERTEX
  5
41E
  8
_ANNOTATION$DIMS_AND_ANNO
 62
     3
 10
-228.8463990331733
 20
-734.2481443695368
 30
0.0
  0
VERTEX
  5
41F
  8
_ANNOTATION$DIMS_AND_ANNO
 62
     3
 10
-228.7938793481339
 20
-734.2481443695368
 30
0.0
  0
VERTEX
  5
420
  8
_ANNOTATION$DIMS_AND_ANNO
 62
     3
 10
-228.7938793481339
 20
-734.4366601440805
 30
0.0
  0
VERTEX
  5
421
  8
_ANNOTATION$DIMS_AND_ANNO
 62
     3
 10
-228.754879348134
 20
-734.4366601440805
 30
0.0
  0
VERTEX
  5
422
  8
_ANNOTATION$DIMS_AND_ANNO
 62
     3
 10
-228.754879348134
 20
-734.2091443695368
 30
0.0
  0
VERTEX
  5
423
  8
_ANNOTATION$DIMS_AND_ANNO
 62
     3
 10
-228.8073990331733
 20
-734.2091443695368
 30
0.0
  0
SEQEND
  5
424
  8
_ANNOTATION$DIMS_AND_ANNO
 62
     3
  0
POLYLINE
  5
425
  8
_ANNOTATION$DIMS_AND_ANNO
 62
     3
 66
     1
 10
0.0
 20
0.0
 30
0.0
 70
     1
  0
VERTEX
  5
426
  8
_ANNOTATION$DIMS_AND_ANNO
 62
     3
 10
-228.8073990331734
 20
-724.6476327308881
 30
0.0
 42
0.2401375416014042
  0
VERTEX
  5
427
  8
_ANNOTATION$DIMS_AND_ANNO
 62
     3
 10
-228.7945117013779
 20
-724.6729185948523
 30
0.0
  0
VERTEX
  5
428
  8
_ANNOTATION$DIMS_AND_ANNO
 62
     3
 10
-228.6212368010995
 20
-724.7987513331152
 30
0.0
 42
0.1583274682848548
  0
VERTEX
  5
429
  8
_ANNOTATION$DIMS_AND_ANNO
 62
     3
 10
-228.6028741328951
 20
-724.8047154691511
 30
0.0
  0
VERTEX
  5
42A
  8
_ANNOTATION$DIMS_AND_ANNO
 62
     3
 10
-228.5919239334517
 20
-724.804715469151
 30
0.0
 42
0.1583274682977809
  0
VERTEX
  5
42B
  8
_ANNOTATION$DIMS_AND_ANNO
 62
     3
 10
-228.5735612652474
 20
-724.7987513331152
 30
0.0
  0
VERTEX
  5
42C
  8
_ANNOTATION$DIMS_AND_ANNO
 62
     3
 10
-228.400286364969
 20
-724.6729185948521
 30
0.0
 42
0.2401375416097337
  0
VERTEX
  5
42D
  8
_ANNOTATION$DIMS_AND_ANNO
 62
     3
 10
-228.3873990331733
 20
-724.647632730888
 30
0.0
  0
VERTEX
  5
42E
  8
_ANNOTATION$DIMS_AND_ANNO
 62
     3
 10
-228.3873990331734
 20
-724.5933097768922
 30
0.0
  0
VERTEX
  5
42F
  8
_ANNOTATION$DIMS_AND_ANNO
 62
     3
 10
-228.4399187182128
 20
-724.5933097768922
 30
0.0
  0
VERTEX
  5
430
  8
_ANNOTATION$DIMS_AND_ANNO
 62
     3
 10
-228.4399187182128
 20
-724.3657940023485
 30
0.0
  0
VERTEX
  5
431
  8
_ANNOTATION$DIMS_AND_ANNO
 62
     3
 10
-228.4009187182128
 20
-724.3657940023485
 30
0.0
  0
VERTEX
  5
432
  8
_ANNOTATION$DIMS_AND_ANNO
 62
     3
 10
-228.4009187182128
 20
-724.5543097768922
 30
0.0
  0
VERTEX
  5
433
  8
_ANNOTATION$DIMS_AND_ANNO
 62
     3
 10
-228.3483990331735
 20
-724.5543097768922
 30
0.0
  0
VERTEX
  5
434
  8
_ANNOTATION$DIMS_AND_ANNO
 62
     3
 10
-228.3483990331735
 20
-724.647632730888
 30
0.0
 42
-0.2401375416000884
  0
VERTEX
  5
435
  8
_ANNOTATION$DIMS_AND_ANNO
 62
     3
 10
-228.37736975505
 20
-724.7044753530794
 30
0.0
  0
VERTEX
  5
436
  8
_ANNOTATION$DIMS_AND_ANNO
 62
     3
 10
-228.5506446553284
 20
-724.8303080913425
 30
0.0
 42
-0.1583274682888579
  0
VERTEX
  5
437
  8
_ANNOTATION$DIMS_AND_ANNO
 62
     3
 10
-228.5919239334518
 20
-724.8437154691511
 30
0.0
  0
VERTEX
  5
438
  8
_ANNOTATION$DIMS_AND_ANNO
 62
     3
 10
-228.6028741328951
 20
-724.843715469151
 30
0.0
 42
-0.1583274682820499
  0
VERTEX
  5
439
  8
_ANNOTATION$DIMS_AND_ANNO
 62
     3
 10
-228.6441534110184
 20
-724.8303080913429
 30
0.0
  0
VERTEX
  5
43A
  8
_ANNOTATION$DIMS_AND_ANNO
 62
     3
 10
-228.817428311297
 20
-724.7044753530795
 30
0.0
 42
-0.2401375416001456
  0
VERTEX
  5
43B
  8
_ANNOTATION$DIMS_AND_ANNO
 62
     3
 10
-228.8463990331734
 20
-724.6476327308881
 30
0.0
  0
VERTEX
  5
43C
  8
_ANNOTATION$DIMS_AND_ANNO
 62
     3
 10
-228.8463990331734
 20
-724.5543097768922
 30
0.0
  0
VERTEX
  5
43D
  8
_ANNOTATION$DIMS_AND_ANNO
 62
     3
 10
-228.7938793481341
 20
-724.5543097768922
 30
0.0
  0
VERTEX
  5
43E
  8
_ANNOTATION$DIMS_AND_ANNO
 62
     3
 10
-228.7938793481341
 20
-724.3657940023485
 30
0.0
  0
VERTEX
  5
43F
  8
_ANNOTATION$DIMS_AND_ANNO
 62
     3
 10
-228.7548793481341
 20
-724.3657940023485
 30
0.0
  0
VERTEX
  5
440
  8
_ANNOTATION$DIMS_AND_ANNO
 62
     3
 10
-228.7548793481341
 20
-724.5933097768922
 30
0.0
  0
VERTEX
  5
441
  8
_ANNOTATION$DIMS_AND_ANNO
 62
     3
 10
-228.8073990331734
 20
-724.5933097768922
 30
0.0
  0
SEQEND
  5
442
  8
_ANNOTATION$DIMS_AND_ANNO
 62
     3
  0
POLYLINE
  5
443
  8
_ANNOTATION$DIMS_AND_ANNO
 62
     3
 66
     1
 10
0.0
 20
0.0
 30
0.0
 70
     1
  0
VERTEX
  5
444
  8
_ANNOTATION$DIMS_AND_ANNO
 62
     3
 10
-228.8073990331735
 20
-723.2421209198644
 30
0.0
 42
0.2401375415878517
  0
VERTEX
  5
445
  8
_ANNOTATION$DIMS_AND_ANNO
 62
     3
 10
-228.7945117013779
 20
-723.2674067838286
 30
0.0
  0
VERTEX
  5
446
  8
_ANNOTATION$DIMS_AND_ANNO
 62
     3
 10
-228.6212368010995
 20
-723.3932395220918
 30
0.0
 42
0.1583274682907888
  0
VERTEX
  5
447
  8
_ANNOTATION$DIMS_AND_ANNO
 62
     3
 10
-228.6028741328951
 20
-723.3992036581275
 30
0.0
  0
VERTEX
  5
448
  8
_ANNOTATION$DIMS_AND_ANNO
 62
     3
 10
-228.5919239334517
 20
-723.3992036581275
 30
0.0
 42
0.1583274682923617
  0
VERTEX
  5
449
  8
_ANNOTATION$DIMS_AND_ANNO
 62
     3
 10
-228.5735612652473
 20
-723.3932395220918
 30
0.0
  0
VERTEX
  5
44A
  8
_ANNOTATION$DIMS_AND_ANNO
 62
     3
 10
-228.4002863649691
 20
-723.2674067838287
 30
0.0
 42
0.2401375416072173
  0
VERTEX
  5
44B
  8
_ANNOTATION$DIMS_AND_ANNO
 62
     3
 10
-228.3873990331735
 20
-723.2421209198643
 30
0.0
  0
VERTEX
  5
44C
  8
_ANNOTATION$DIMS_AND_ANNO
 62
     3
 10
-228.3873990331736
 20
-723.1877979658686
 30
0.0
  0
VERTEX
  5
44D
  8
_ANNOTATION$DIMS_AND_ANNO
 62
     3
 10
-228.4399187182129
 20
-723.1877979658686
 30
0.0
  0
VERTEX
  5
44E
  8
_ANNOTATION$DIMS_AND_ANNO
 62
     3
 10
-228.4399187182129
 20
-722.9602821913248
 30
0.0
  0
VERTEX
  5
44F
  8
_ANNOTATION$DIMS_AND_ANNO
 62
     3
 10
-228.4009187182129
 20
-722.9602821913248
 30
0.0
  0
VERTEX
  5
450
  8
_ANNOTATION$DIMS_AND_ANNO
 62
     3
 10
-228.4009187182129
 20
-723.1487979658687
 30
0.0
  0
VERTEX
  5
451
  8
_ANNOTATION$DIMS_AND_ANNO
 62
     3
 10
-228.3483990331736
 20
-723.1487979658687
 30
0.0
  0
VERTEX
  5
452
  8
_ANNOTATION$DIMS_AND_ANNO
 62
     3
 10
-228.3483990331735
 20
-723.2421209198644
 30
0.0
 42
-0.2401375415933795
  0
VERTEX
  5
453
  8
_ANNOTATION$DIMS_AND_ANNO
 62
     3
 10
-228.3773697550499
 20
-723.2989635420557
 30
0.0
  0
VERTEX
  5
454
  8
_ANNOTATION$DIMS_AND_ANNO
 62
     3
 10
-228.5506446553284
 20
-723.4247962803189
 30
0.0
 42
-0.1583274682890345
  0
VERTEX
  5
455
  8
_ANNOTATION$DIMS_AND_ANNO
 62
     3
 10
-228.5919239334518
 20
-723.4382036581273
 30
0.0
  0
VERTEX
  5
456
  8
_ANNOTATION$DIMS_AND_ANNO
 62
     3
 10
-228.6028741328951
 20
-723.4382036581275
 30
0.0
 42
-0.1583274682757441
  0
VERTEX
  5
457
  8
_ANNOTATION$DIMS_AND_ANNO
 62
     3
 10
-228.6441534110183
 20
-723.424796280319
 30
0.0
  0
VERTEX
  5
458
  8
_ANNOTATION$DIMS_AND_ANNO
 62
     3
 10
-228.817428311297
 20
-723.2989635420558
 30
0.0
 42
-0.2401375416043355
  0
VERTEX
  5
459
  8
_ANNOTATION$DIMS_AND_ANNO
 62
     3
 10
-228.8463990331736
 20
-723.2421209198644
 30
0.0
  0
VERTEX
  5
45A
  8
_ANNOTATION$DIMS_AND_ANNO
 62
     3
 10
-228.8463990331735
 20
-723.1487979658687
 30
0.0
  0
VERTEX
  5
45B
  8
_ANNOTATION$DIMS_AND_ANNO
 62
     3
 10
-228.7938793481342
 20
-723.1487979658687
 30
0.0
  0
VERTEX
  5
45C
  8
_ANNOTATION$DIMS_AND_ANNO
 62
     3
 10
-228.7938793481342
 20
-722.9602821913248
 30
0.0
  0
VERTEX
  5
45D
  8
_ANNOTATION$DIMS_AND_ANNO
 62
     3
 10
-228.7548793481342
 20
-722.9602821913248
 30
0.0
  0
VERTEX
  5
45E
  8
_ANNOTATION$DIMS_AND_ANNO
 62
     3
 10
-228.7548793481342
 20
-723.1877979658686
 30
0.0
  0
VERTEX
  5
45F
  8
_ANNOTATION$DIMS_AND_ANNO
 62
     3
 10
-228.8073990331735
 20
-723.1877979658686
 30
0.0
  0
SEQEND
  5
460
  8
_ANNOTATION$DIMS_AND_ANNO
 62
     3
  0
POLYLINE
  5
461
  8
_ANNOTATION$DIMS_AND_ANNO
 62
     3
 66
     1
 10
0.0
 20
0.0
 30
0.0
 70
     1
  0
VERTEX
  5
462
  8
_ANNOTATION$DIMS_AND_ANNO
 62
     3
 10
-225.972399033054
 20
-723.0077901357474
 30
0.0
 42
0.4142135623730901
  0
VERTEX
  5
463
  8
_ANNOTATION$DIMS_AND_ANNO
 62
     3
 10
-226.347399033054
 20
-722.6327901357477
 30
0.0
  0
VERTEX
  5
464
  8
_ANNOTATION$DIMS_AND_ANNO
 62
     3
 10
-227.3473990331105
 20
-722.6327901357474
 30
0.0
 42
0.4142135623720922
  0
VERTEX
  5
465
  8
_ANNOTATION$DIMS_AND_ANNO
 62
     3
 10
-227.7223990331104
 20
-723.0077901357474
 30
0.0
  0
VERTEX
  5
466
  8
_ANNOTATION$DIMS_AND_ANNO
 62
     3
 10
-227.7223990331109
 20
-734.389152199658
 30
0.0
 42
0.4142135623720922
  0
VERTEX
  5
467
  8
_ANNOTATION$DIMS_AND_ANNO
 62
     3
 10
-227.3473990331108
 20
-734.764152199658
 30
0.0
  0
VERTEX
  5
468
  8
_ANNOTATION$DIMS_AND_ANNO
 62
     3
 10
-226.3473990330546
 20
-734.7641521996582
 30
0.0
 42
0.4142135623727388
  0
VERTEX
  5
469
  8
_ANNOTATION$DIMS_AND_ANNO
 62
     3
 10
-225.9723990330546
 20
-734.3891521996582
 30
0.0
  0
SEQEND
  5
46A
  8
_ANNOTATION$DIMS_AND_ANNO
 62
     3
  0
POLYLINE
  5
46B
  8
_ANNOTATION$DIMS_AND_ANNO
 62
     3
 66
     1
 10
0.0
 20
0.0
 30
0.0
 70
     1
  0
VERTEX
  5
46C
  8
_ANNOTATION$DIMS_AND_ANNO
 62
     3
 10
-227.0573990331168
 20
-732.7493096045174
 30
0.0
 42
-0.2401375415818254
  0
VERTEX
  5
46D
  8
_ANNOTATION$DIMS_AND_ANNO
 62
     3
 10
-227.0445117013213
 20
-732.724023740553
 30
0.0
  0
VERTEX
  5
46E
  8
_ANNOTATION$DIMS_AND_ANNO
 62
     3
 10
-226.8712368010429
 20
-732.59819100229
 30
0.0
 42
-0.1583274682924369
  0
VERTEX
  5
46F
  8
_ANNOTATION$DIMS_AND_ANNO
 62
     3
 10
-226.8528741328385
 20
-732.5922268662544
 30
0.0
  0
VERTEX
  5
470
  8
_ANNOTATION$DIMS_AND_ANNO
 62
     3
 10
-226.841923933395
 20
-732.5922268662544
 30
0.0
 42
-0.158327468274397
  0
VERTEX
  5
471
  8
_ANNOTATION$DIMS_AND_ANNO
 62
     3
 10
-226.8235612651908
 20
-732.5981910022902
 30
0.0
  0
VERTEX
  5
472
  8
_ANNOTATION$DIMS_AND_ANNO
 62
     3
 10
-226.6502863649124
 20
-732.7240237405532
 30
0.0
 42
-0.2401375415951231
  0
VERTEX
  5
473
  8
_ANNOTATION$DIMS_AND_ANNO
 62
     3
 10
-226.637399033117
 20
-732.7493096045174
 30
0.0
  0
VERTEX
  5
474
  8
_ANNOTATION$DIMS_AND_ANNO
 62
     3
 10
-226.6373990331168
 20
-732.8036325585132
 30
0.0
  0
VERTEX
  5
475
  8
_ANNOTATION$DIMS_AND_ANNO
 62
     3
 10
-226.6899187181562
 20
-732.8036325585132
 30
0.0
  0
VERTEX
  5
476
  8
_ANNOTATION$DIMS_AND_ANNO
 62
     3
 10
-226.6899187181562
 20
-733.031148333057
 30
0.0
  0
VERTEX
  5
477
  8
_ANNOTATION$DIMS_AND_ANNO
 62
     3
 10
-226.6509187181562
 20
-733.031148333057
 30
0.0
  0
VERTEX
  5
478
  8
_ANNOTATION$DIMS_AND_ANNO
 62
     3
 10
-226.6509187181562
 20
-732.8426325585132
 30
0.0
  0
VERTEX
  5
479
  8
_ANNOTATION$DIMS_AND_ANNO
 62
     3
 10
-226.5983990331168
 20
-732.8426325585132
 30
0.0
  0
VERTEX
  5
47A
  8
_ANNOTATION$DIMS_AND_ANNO
 62
     3
 10
-226.5983990331167
 20
-732.7493096045174
 30
0.0
 42
0.2401375415942462
  0
VERTEX
  5
47B
  8
_ANNOTATION$DIMS_AND_ANNO
 62
     3
 10
-226.627369754993
 20
-732.692466982326
 30
0.0
  0
VERTEX
  5
47C
  8
_ANNOTATION$DIMS_AND_ANNO
 62
     3
 10
-226.8006446552717
 20
-732.5666342440629
 30
0.0
 42
0.1583274682914322
  0
VERTEX
  5
47D
  8
_ANNOTATION$DIMS_AND_ANNO
 62
     3
 10
-226.8419239333952
 20
-732.5532268662544
 30
0.0
  0
VERTEX
  5
47E
  8
_ANNOTATION$DIMS_AND_ANNO
 62
     3
 10
-226.8528741328385
 20
-732.5532268662544
 30
0.0
 42
0.1583274682819586
  0
VERTEX
  5
47F
  8
_ANNOTATION$DIMS_AND_ANNO
 62
     3
 10
-226.8941534109618
 20
-732.5666342440627
 30
0.0
  0
VERTEX
  5
480
  8
_ANNOTATION$DIMS_AND_ANNO
 62
     3
 10
-227.0674283112404
 20
-732.692466982326
 30
0.0
 42
0.240137541605745
  0
VERTEX
  5
481
  8
_ANNOTATION$DIMS_AND_ANNO
 62
     3
 10
-227.0963990331166
 20
-732.7493096045174
 30
0.0
  0
VERTEX
  5
482
  8
_ANNOTATION$DIMS_AND_ANNO
 62
     3
 10
-227.0963990331168
 20
-732.8426325585132
 30
0.0
  0
VERTEX
  5
483
  8
_ANNOTATION$DIMS_AND_ANNO
 62
     3
 10
-227.0438793480774
 20
-732.8426325585132
 30
0.0
  0
VERTEX
  5
484
  8
_ANNOTATION$DIMS_AND_ANNO
 62
     3
 10
-227.0438793480774
 20
-733.031148333057
 30
0.0
  0
VERTEX
  5
485
  8
_ANNOTATION$DIMS_AND_ANNO
 62
     3
 10
-227.0048793480775
 20
-733.031148333057
 30
0.0
  0
VERTEX
  5
486
  8
_ANNOTATION$DIMS_AND_ANNO
 62
     3
 10
-227.0048793480775
 20
-732.8036325585132
 30
0.0
  0
VERTEX
  5
487
  8
_ANNOTATION$DIMS_AND_ANNO
 62
     3
 10
-227.0573990331168
 20
-732.8036325585132
 30
0.0
  0
SEQEND
  5
488
  8
_ANNOTATION$DIMS_AND_ANNO
 62
     3
  0
POLYLINE
  5
489
  8
_ANNOTATION$DIMS_AND_ANNO
 62
     3
 66
     1
 10
0.0
 20
0.0
 30
0.0
 70
     1
  0
VERTEX
  5
48A
  8
_ANNOTATION$DIMS_AND_ANNO
 62
     3
 10
-227.0573990331168
 20
-734.154821415541
 30
0.0
 42
-0.2401375415978638
  0
VERTEX
  5
48B
  8
_ANNOTATION$DIMS_AND_ANNO
 62
     3
 10
-227.0445117013212
 20
-734.129535551577
 30
0.0
  0
VERTEX
  5
48C
  8
_ANNOTATION$DIMS_AND_ANNO
 62
     3
 10
-226.8712368010429
 20
-734.0037028133137
 30
0.0
 42
-0.1583274682906795
  0
VERTEX
  5
48D
  8
_ANNOTATION$DIMS_AND_ANNO
 62
     3
 10
-226.8528741328385
 20
-733.997738677278
 30
0.0
  0
VERTEX
  5
48E
  8
_ANNOTATION$DIMS_AND_ANNO
 62
     3
 10
-226.841923933395
 20
-733.997738677278
 30
0.0
 42
-0.1583274682855015
  0
VERTEX
  5
48F
  8
_ANNOTATION$DIMS_AND_ANNO
 62
     3
 10
-226.8235612651908
 20
-734.0037028133138
 30
0.0
  0
VERTEX
  5
490
  8
_ANNOTATION$DIMS_AND_ANNO
 62
     3
 10
-226.6502863649124
 20
-734.1295355515769
 30
0.0
 42
-0.2401375415873143
  0
VERTEX
  5
491
  8
_ANNOTATION$DIMS_AND_ANNO
 62
     3
 10
-226.6373990331168
 20
-734.154821415541
 30
0.0
  0
VERTEX
  5
492
  8
_ANNOTATION$DIMS_AND_ANNO
 62
     3
 10
-226.6373990331168
 20
-734.2091443695368
 30
0.0
  0
VERTEX
  5
493
  8
_ANNOTATION$DIMS_AND_ANNO
 62
     3
 10
-226.6899187181562
 20
-734.2091443695368
 30
0.0
  0
VERTEX
  5
494
  8
_ANNOTATION$DIMS_AND_ANNO
 62
     3
 10
-226.6899187181562
 20
-734.4366601440805
 30
0.0
  0
VERTEX
  5
495
  8
_ANNOTATION$DIMS_AND_ANNO
 62
     3
 10
-226.6509187181562
 20
-734.4366601440805
 30
0.0
  0
VERTEX
  5
496
  8
_ANNOTATION$DIMS_AND_ANNO
 62
     3
 10
-226.6509187181562
 20
-734.2481443695368
 30
0.0
  0
VERTEX
  5
497
  8
_ANNOTATION$DIMS_AND_ANNO
 62
     3
 10
-226.5983990331168
 20
-734.2481443695368
 30
0.0
  0
VERTEX
  5
498
  8
_ANNOTATION$DIMS_AND_ANNO
 62
     3
 10
-226.5983990331169
 20
-734.154821415541
 30
0.0
 42
0.240137541599853
  0
VERTEX
  5
499
  8
_ANNOTATION$DIMS_AND_ANNO
 62
     3
 10
-226.6273697549935
 20
-734.0979787933497
 30
0.0
  0
VERTEX
  5
49A
  8
_ANNOTATION$DIMS_AND_ANNO
 62
     3
 10
-226.8006446552718
 20
-733.9721460550865
 30
0.0
 42
0.1583274682978698
  0
VERTEX
  5
49B
  8
_ANNOTATION$DIMS_AND_ANNO
 62
     3
 10
-226.8419239333952
 20
-733.9587386772779
 30
0.0
  0
VERTEX
  5
49C
  8
_ANNOTATION$DIMS_AND_ANNO
 62
     3
 10
-226.8528741328385
 20
-733.958738677278
 30
0.0
 42
0.1583274682782258
  0
VERTEX
  5
49D
  8
_ANNOTATION$DIMS_AND_ANNO
 62
     3
 10
-226.8941534109616
 20
-733.9721460550863
 30
0.0
  0
VERTEX
  5
49E
  8
_ANNOTATION$DIMS_AND_ANNO
 62
     3
 10
-227.0674283112404
 20
-734.0979787933495
 30
0.0
 42
0.2401375416050888
  0
VERTEX
  5
49F
  8
_ANNOTATION$DIMS_AND_ANNO
 62
     3
 10
-227.0963990331168
 20
-734.1548214155409
 30
0.0
  0
VERTEX
  5
4A0
  8
_ANNOTATION$DIMS_AND_ANNO
 62
     3
 10
-227.0963990331168
 20
-734.2481443695368
 30
0.0
  0
VERTEX
  5
4A1
  8
_ANNOTATION$DIMS_AND_ANNO
 62
     3
 10
-227.0438793480774
 20
-734.2481443695368
 30
0.0
  0
VERTEX
  5
4A2
  8
_ANNOTATION$DIMS_AND_ANNO
 62
     3
 10
-227.0438793480774
 20
-734.4366601440805
 30
0.0
  0
VERTEX
  5
4A3
  8
_ANNOTATION$DIMS_AND_ANNO
 62
     3
 10
-227.0048793480775
 20
-734.4366601440805
 30
0.0
  0
VERTEX
  5
4A4
  8
_ANNOTATION$DIMS_AND_ANNO
 62
     3
 10
-227.0048793480775
 20
-734.2091443695368
 30
0.0
  0
VERTEX
  5
4A5
  8
_ANNOTATION$DIMS_AND_ANNO
 62
     3
 10
-227.0573990331168
 20
-734.2091443695368
 30
0.0
  0
SEQEND
  5
4A6
  8
_ANNOTATION$DIMS_AND_ANNO
 62
     3
  0
POLYLINE
  5
4A7
  8
_ANNOTATION$DIMS_AND_ANNO
 62
     3
 66
     1
 10
0.0
 20
0.0
 30
0.0
 70
     1
  0
VERTEX
  5
4A8
  8
_ANNOTATION$DIMS_AND_ANNO
 62
     3
 10
-227.0573990331169
 20
-724.6476327308881
 30
0.0
 42
0.2401375416003121
  0
VERTEX
  5
4A9
  8
_ANNOTATION$DIMS_AND_ANNO
 62
     3
 10
-227.0445117013214
 20
-724.6729185948524
 30
0.0
  0
VERTEX
  5
4AA
  8
_ANNOTATION$DIMS_AND_ANNO
 62
     3
 10
-226.871236801043
 20
-724.7987513331152
 30
0.0
 42
0.1583274682848548
  0
VERTEX
  5
4AB
  8
_ANNOTATION$DIMS_AND_ANNO
 62
     3
 10
-226.8528741328386
 20
-724.8047154691511
 30
0.0
  0
VERTEX
  5
4AC
  8
_ANNOTATION$DIMS_AND_ANNO
 62
     3
 10
-226.8419239333952
 20
-724.804715469151
 30
0.0
 42
0.1583274683110682
  0
VERTEX
  5
4AD
  8
_ANNOTATION$DIMS_AND_ANNO
 62
     3
 10
-226.8235612651908
 20
-724.7987513331152
 30
0.0
  0
VERTEX
  5
4AE
  8
_ANNOTATION$DIMS_AND_ANNO
 62
     3
 10
-226.6502863649125
 20
-724.6729185948521
 30
0.0
 42
0.240137541608491
  0
VERTEX
  5
4AF
  8
_ANNOTATION$DIMS_AND_ANNO
 62
     3
 10
-226.6373990331167
 20
-724.647632730888
 30
0.0
  0
VERTEX
  5
4B0
  8
_ANNOTATION$DIMS_AND_ANNO
 62
     3
 10
-226.6373990331169
 20
-724.5933097768922
 30
0.0
  0
VERTEX
  5
4B1
  8
_ANNOTATION$DIMS_AND_ANNO
 62
     3
 10
-226.6899187181563
 20
-724.5933097768922
 30
0.0
  0
VERTEX
  5
4B2
  8
_ANNOTATION$DIMS_AND_ANNO
 62
     3
 10
-226.6899187181563
 20
-724.3657940023485
 30
0.0
  0
VERTEX
  5
4B3
  8
_ANNOTATION$DIMS_AND_ANNO
 62
     3
 10
-226.6509187181563
 20
-724.3657940023485
 30
0.0
  0
VERTEX
  5
4B4
  8
_ANNOTATION$DIMS_AND_ANNO
 62
     3
 10
-226.6509187181563
 20
-724.5543097768922
 30
0.0
  0
VERTEX
  5
4B5
  8
_ANNOTATION$DIMS_AND_ANNO
 62
     3
 10
-226.5983990331169
 20
-724.5543097768922
 30
0.0
  0
VERTEX
  5
4B6
  8
_ANNOTATION$DIMS_AND_ANNO
 62
     3
 10
-226.5983990331169
 20
-724.647632730888
 30
0.0
 42
-0.2401375415986834
  0
VERTEX
  5
4B7
  8
_ANNOTATION$DIMS_AND_ANNO
 62
     3
 10
-226.6273697549935
 20
-724.7044753530795
 30
0.0
  0
VERTEX
  5
4B8
  8
_ANNOTATION$DIMS_AND_ANNO
 62
     3
 10
-226.8006446552719
 20
-724.8303080913425
 30
0.0
 42
-0.1583274682827884
  0
VERTEX
  5
4B9
  8
_ANNOTATION$DIMS_AND_ANNO
 62
     3
 10
-226.8419239333953
 20
-724.8437154691511
 30
0.0
  0
VERTEX
  5
4BA
  8
_ANNOTATION$DIMS_AND_ANNO
 62
     3
 10
-226.8528741328386
 20
-724.843715469151
 30
0.0
 42
-0.1583274682788903
  0
VERTEX
  5
4BB
  8
_ANNOTATION$DIMS_AND_ANNO
 62
     3
 10
-226.8941534109618
 20
-724.8303080913428
 30
0.0
  0
VERTEX
  5
4BC
  8
_ANNOTATION$DIMS_AND_ANNO
 62
     3
 10
-227.0674283112405
 20
-724.7044753530795
 30
0.0
 42
-0.2401375415990779
  0
VERTEX
  5
4BD
  8
_ANNOTATION$DIMS_AND_ANNO
 62
     3
 10
-227.096399033117
 20
-724.6476327308881
 30
0.0
  0
VERTEX
  5
4BE
  8
_ANNOTATION$DIMS_AND_ANNO
 62
     3
 10
-227.0963990331169
 20
-724.5543097768922
 30
0.0
  0
VERTEX
  5
4BF
  8
_ANNOTATION$DIMS_AND_ANNO
 62
     3
 10
-227.0438793480776
 20
-724.5543097768922
 30
0.0
  0
VERTEX
  5
4C0
  8
_ANNOTATION$DIMS_AND_ANNO
 62
     3
 10
-227.0438793480776
 20
-724.3657940023485
 30
0.0
  0
VERTEX
  5
4C1
  8
_ANNOTATION$DIMS_AND_ANNO
 62
     3
 10
-227.0048793480776
 20
-724.3657940023485
 30
0.0
  0
VERTEX
  5
4C2
  8
_ANNOTATION$DIMS_AND_ANNO
 62
     3
 10
-227.0048793480776
 20
-724.5933097768922
 30
0.0
  0
VERTEX
  5
4C3
  8
_ANNOTATION$DIMS_AND_ANNO
 62
     3
 10
-227.0573990331169
 20
-724.5933097768922
 30
0.0
  0
SEQEND
  5
4C4
  8
_ANNOTATION$DIMS_AND_ANNO
 62
     3
  0
POLYLINE
  5
4C5
  8
_ANNOTATION$DIMS_AND_ANNO
 62
     3
 66
     1
 10
0.0
 20
0.0
 30
0.0
 70
     1
  0
VERTEX
  5
4C6
  8
_ANNOTATION$DIMS_AND_ANNO
 62
     3
 10
-227.057399033117
 20
-723.2421209198644
 30
0.0
 42
0.2401375415842739
  0
VERTEX
  5
4C7
  8
_ANNOTATION$DIMS_AND_ANNO
 62
     3
 10
-227.0445117013213
 20
-723.2674067838285
 30
0.0
  0
VERTEX
  5
4C8
  8
_ANNOTATION$DIMS_AND_ANNO
 62
     3
 10
-226.871236801043
 20
-723.3932395220918
 30
0.0
 42
0.1583274682907227
  0
VERTEX
  5
4C9
  8
_ANNOTATION$DIMS_AND_ANNO
 62
     3
 10
-226.8528741328386
 20
-723.3992036581275
 30
0.0
  0
VERTEX
  5
4CA
  8
_ANNOTATION$DIMS_AND_ANNO
 62
     3
 10
-226.8419239333952
 20
-723.3992036581275
 30
0.0
 42
0.1583274682923617
  0
VERTEX
  5
4CB
  8
_ANNOTATION$DIMS_AND_ANNO
 62
     3
 10
-226.8235612651907
 20
-723.3932395220918
 30
0.0
  0
VERTEX
  5
4CC
  8
_ANNOTATION$DIMS_AND_ANNO
 62
     3
 10
-226.6502863649126
 20
-723.2674067838286
 30
0.0
 42
0.2401375416061125
  0
VERTEX
  5
4CD
  8
_ANNOTATION$DIMS_AND_ANNO
 62
     3
 10
-226.637399033117
 20
-723.2421209198643
 30
0.0
  0
VERTEX
  5
4CE
  8
_ANNOTATION$DIMS_AND_ANNO
 62
     3
 10
-226.637399033117
 20
-723.1877979658686
 30
0.0
  0
VERTEX
  5
4CF
  8
_ANNOTATION$DIMS_AND_ANNO
 62
     3
 10
-226.6899187181564
 20
-723.1877979658686
 30
0.0
  0
VERTEX
  5
4D0
  8
_ANNOTATION$DIMS_AND_ANNO
 62
     3
 10
-226.6899187181564
 20
-722.9602821913248
 30
0.0
  0
VERTEX
  5
4D1
  8
_ANNOTATION$DIMS_AND_ANNO
 62
     3
 10
-226.6509187181564
 20
-722.9602821913248
 30
0.0
  0
VERTEX
  5
4D2
  8
_ANNOTATION$DIMS_AND_ANNO
 62
     3
 10
-226.6509187181564
 20
-723.1487979658687
 30
0.0
  0
VERTEX
  5
4D3
  8
_ANNOTATION$DIMS_AND_ANNO
 62
     3
 10
-226.5983990331171
 20
-723.1487979658687
 30
0.0
  0
VERTEX
  5
4D4
  8
_ANNOTATION$DIMS_AND_ANNO
 62
     3
 10
-226.5983990331171
 20
-723.2421209198644
 30
0.0
 42
-0.2401375415915055
  0
VERTEX
  5
4D5
  8
_ANNOTATION$DIMS_AND_ANNO
 62
     3
 10
-226.6273697549934
 20
-723.2989635420557
 30
0.0
  0
VERTEX
  5
4D6
  8
_ANNOTATION$DIMS_AND_ANNO
 62
     3
 10
-226.8006446552719
 20
-723.4247962803189
 30
0.0
 42
-0.158327468289354
  0
VERTEX
  5
4D7
  8
_ANNOTATION$DIMS_AND_ANNO
 62
     3
 10
-226.8419239333953
 20
-723.4382036581273
 30
0.0
  0
VERTEX
  5
4D8
  8
_ANNOTATION$DIMS_AND_ANNO
 62
     3
 10
-226.8528741328386
 20
-723.4382036581275
 30
0.0
 42
-0.1583274682758957
  0
VERTEX
  5
4D9
  8
_ANNOTATION$DIMS_AND_ANNO
 62
     3
 10
-226.8941534109618
 20
-723.424796280319
 30
0.0
  0
VERTEX
  5
4DA
  8
_ANNOTATION$DIMS_AND_ANNO
 62
     3
 10
-227.0674283112405
 20
-723.2989635420557
 30
0.0
 42
-0.2401375416049918
  0
VERTEX
  5
4DB
  8
_ANNOTATION$DIMS_AND_ANNO
 62
     3
 10
-227.0963990331171
 20
-723.2421209198644
 30
0.0
  0
VERTEX
  5
4DC
  8
_ANNOTATION$DIMS_AND_ANNO
 62
     3
 10
-227.096399033117
 20
-723.1487979658687
 30
0.0
  0
VERTEX
  5
4DD
  8
_ANNOTATION$DIMS_AND_ANNO
 62
     3
 10
-227.0438793480777
 20
-723.1487979658687
 30
0.0
  0
VERTEX
  5
4DE
  8
_ANNOTATION$DIMS_AND_ANNO
 62
     3
 10
-227.0438793480777
 20
-722.9602821913248
 30
0.0
  0
VERTEX
  5
4DF
  8
_ANNOTATION$DIMS_AND_ANNO
 62
     3
 10
-227.0048793480777
 20
-722.9602821913248
 30
0.0
  0
VERTEX
  5
4E0
  8
_ANNOTATION$DIMS_AND_ANNO
 62
     3
 10
-227.0048793480777
 20
-723.1877979658686
 30
0.0
  0
VERTEX
  5
4E1
  8
_ANNOTATION$DIMS_AND_ANNO
 62
     3
 10
-227.057399033117
 20
-723.1877979658686
 30
0.0
  0
SEQEND
  5
4E2
  8
_ANNOTATION$DIMS_AND_ANNO
 62
     3
  0
POLYLINE
  5
4E3
  8
_ANNOTATION$DIMS_AND_ANNO
 66
     1
 10
0.0
 20
0.0
 30
0.0
 70
     1
  0
VERTEX
  5
4E4
  8
_ANNOTATION$DIMS_AND_ANNO
 10
-239.6795191411584
 20
-722.7371145064787
 30
0.0
  0
VERTEX
  5
4E5
  8
_ANNOTATION$DIMS_AND_ANNO
 10
-243.3207050071692
 20
-722.4185520214124
 30
0.0
 42
-0.4142135623715668
  0
VERTEX
  5
4E6
  8
_ANNOTATION$DIMS_AND_ANNO
 10
-243.678594359667
 20
-721.992036099822
 30
0.0
  0
VERTEX
  5
4E7
  8
_ANNOTATION$DIMS_AND_ANNO
 10
-243.5946983789512
 20
-721.0331006522495
 30
0.0
 42
-0.4142135623729291
  0
VERTEX
  5
4E8
  8
_ANNOTATION$DIMS_AND_ANNO
 10
-243.1681824573602
 20
-720.6752112997515
 30
0.0
  0
VERTEX
  5
4E9
  8
_ANNOTATION$DIMS_AND_ANNO
 10
-237.6399401196912
 20
-720.995711675902
 30
0.0
 42
0.0142780111746891
  0
VERTEX
  5
4EA
  8
_ANNOTATION$DIMS_AND_ANNO
 10
-232.2536768442785
 20
-720.995711675902
 30
0.0
  0
VERTEX
  5
4EB
  8
_ANNOTATION$DIMS_AND_ANNO
 10
-226.7254345066118
 20
-720.6752112997513
 30
0.0
 42
-0.4142135623721711
  0
VERTEX
  5
4EC
  8
_ANNOTATION$DIMS_AND_ANNO
 10
-226.2989185850213
 20
-721.0331006522488
 30
0.0
  0
VERTEX
  5
4ED
  8
_ANNOTATION$DIMS_AND_ANNO
 10
-226.2150226043057
 20
-721.9920360998216
 30
0.0
 42
-0.4142135623735602
  0
VERTEX
  5
4EE
  8
_ANNOTATION$DIMS_AND_ANNO
 10
-226.5729119568034
 20
-722.4185520214116
 30
0.0
  0
VERTEX
  5
4EF
  8
_ANNOTATION$DIMS_AND_ANNO
 10
-230.219545056736
 20
-722.7375910776944
 30
0.0
 42
0.9999999999939918
  0
VERTEX
  5
4F0
  8
_ANNOTATION$DIMS_AND_ANNO
 10
-230.214097822814
 20
-722.7998532463251
 30
0.0
  0
VERTEX
  5
4F1
  8
_ANNOTATION$DIMS_AND_ANNO
 10
-229.7441879688538
 20
-722.7587414612245
 30
0.0
 42
-0.4400105308923927
  0
VERTEX
  5
4F2
  8
_ANNOTATION$DIMS_AND_ANNO
 10
-229.472399033167
 20
-723.0077901357474
 30
0.0
  0
VERTEX
  5
4F3
  8
_ANNOTATION$DIMS_AND_ANNO
 10
-229.4723990331669
 20
-729.6913465137429
 30
0.0
 42
-0.3888787318529719
  0
VERTEX
  5
4F4
  8
_ANNOTATION$DIMS_AND_ANNO
 10
-230.3852432904193
 20
-730.6875412118347
 30
0.0
  0
VERTEX
  5
4F5
  8
_ANNOTATION$DIMS_AND_ANNO
 10
-234.8596527392383
 20
-731.0790013145796
 30
0.0
 42
-0.0436609429078266
  0
VERTEX
  5
4F6
  8
_ANNOTATION$DIMS_AND_ANNO
 10
-235.0339642247333
 20
-731.0790013145794
 30
0.0
  0
VERTEX
  5
4F7
  8
_ANNOTATION$DIMS_AND_ANNO
 10
-239.5083736735521
 20
-730.6875412118351
 30
0.0
 42
-0.3888787318528796
  0
VERTEX
  5
4F8
  8
_ANNOTATION$DIMS_AND_ANNO
 10
-240.4212179308048
 20
-729.6913465137433
 30
0.0
  0
VERTEX
  5
4F9
  8
_ANNOTATION$DIMS_AND_ANNO
 10
-240.4212179308049
 20
-723.0077901357477
 30
0.0
 42
-0.4400105308908729
  0
VERTEX
  5
4FA
  8
_ANNOTATION$DIMS_AND_ANNO
 10
-240.1494289951179
 20
-722.7587414612246
 30
0.0
  0
VERTEX
  5
4FB
  8
_ANNOTATION$DIMS_AND_ANNO
 10
-239.6849663750815
 20
-722.7993766751098
 30
0.0
 42
1.091308501132914
  0
SEQEND
  5
4FC
  8
_ANNOTATION$DIMS_AND_ANNO
  0
POLYLINE
  5
4FD
  8
_ANNOTATION$DIMS_AND_ANNO
 66
     1
 10
0.0
 20
0.0
 30
0.0
 70
     1
  0
VERTEX
  5
4FE
  8
_ANNOTATION$DIMS_AND_ANNO
 10
-242.5888069598245
 20
-721.383421841535
 30
0.0
  0
VERTEX
  5
4FF
  8
_ANNOTATION$DIMS_AND_ANNO
 10
-242.7064677509377
 20
-721.373127856171
 30
0.0
 42
0.414213562383796
  0
VERTEX
  5
500
  8
_ANNOTATION$DIMS_AND_ANNO
 10
-242.7491193430966
 20
-721.4089167914208
 30
0.0
  0
VERTEX
  5
501
  8
_ANNOTATION$DIMS_AND_ANNO
 10
-242.780601781668
 20
-721.7687627109087
 30
0.0
 42
0.41421356237361
  0
VERTEX
  5
502
  8
_ANNOTATION$DIMS_AND_ANNO
 10
-242.7448128464182
 20
-721.8114143030671
 30
0.0
  0
VERTEX
  5
503
  8
_ANNOTATION$DIMS_AND_ANNO
 10
-242.627152055305
 20
-721.8217082884316
 30
0.0
 42
0.4142135623725584
  0
VERTEX
  5
504
  8
_ANNOTATION$DIMS_AND_ANNO
 10
-242.584500463146
 20
-721.7859193531817
 30
0.0
  0
VERTEX
  5
505
  8
_ANNOTATION$DIMS_AND_ANNO
 10
-242.5530180245746
 20
-721.426073433694
 30
0.0
 42
0.4142135623715023
  0
SEQEND
  5
506
  8
_ANNOTATION$DIMS_AND_ANNO
  0
POLYLINE
  5
507
  8
_ANNOTATION$DIMS_AND_ANNO
 66
     1
 10
0.0
 20
0.0
 30
0.0
 70
     1
  0
VERTEX
  5
508
  8
_ANNOTATION$DIMS_AND_ANNO
 10
-243.0869043088703
 20
-721.3398439701612
 30
0.0
  0
VERTEX
  5
509
  8
_ANNOTATION$DIMS_AND_ANNO
 10
-243.2045650999835
 20
-721.3295499847972
 30
0.0
 42
0.4142135623793328
  0
VERTEX
  5
50A
  8
_ANNOTATION$DIMS_AND_ANNO
 10
-243.2472166921423
 20
-721.365338920047
 30
0.0
  0
VERTEX
  5
50B
  8
_ANNOTATION$DIMS_AND_ANNO
 10
-243.2786991307139
 20
-721.7251848395348
 30
0.0
 42
0.4142135623660519
  0
VERTEX
  5
50C
  8
_ANNOTATION$DIMS_AND_ANNO
 10
-243.242910195464
 20
-721.7678364316938
 30
0.0
  0
VERTEX
  5
50D
  8
_ANNOTATION$DIMS_AND_ANNO
 10
-243.1252494043508
 20
-721.7781304170578
 30
0.0
 42
0.4142135623721858
  0
VERTEX
  5
50E
  8
_ANNOTATION$DIMS_AND_ANNO
 10
-243.0825978121918
 20
-721.742341481808
 30
0.0
  0
VERTEX
  5
50F
  8
_ANNOTATION$DIMS_AND_ANNO
 10
-243.0511153736206
 20
-721.3824955623202
 30
0.0
 42
0.4142135623769572
  0
SEQEND
  5
510
  8
_ANNOTATION$DIMS_AND_ANNO
  0
POLYLINE
  5
511
  8
_ANNOTATION$DIMS_AND_ANNO
 66
     1
 10
0.0
 20
0.0
 30
0.0
 70
     1
  0
VERTEX
  5
512
  8
_ANNOTATION$DIMS_AND_ANNO
 10
-227.3048100041476
 20
-721.3834218415348
 30
0.0
 42
0.4142135623717543
  0
VERTEX
  5
513
  8
_ANNOTATION$DIMS_AND_ANNO
 10
-227.3405989393973
 20
-721.4260734336938
 30
0.0
  0
VERTEX
  5
514
  8
_ANNOTATION$DIMS_AND_ANNO
 10
-227.3091165008261
 20
-721.7859193531816
 30
0.0
 42
0.4142135623751974
  0
VERTEX
  5
515
  8
_ANNOTATION$DIMS_AND_ANNO
 10
-227.2664649086671
 20
-721.8217082884315
 30
0.0
  0
VERTEX
  5
516
  8
_ANNOTATION$DIMS_AND_ANNO
 10
-227.1488041175539
 20
-721.8114143030674
 30
0.0
 42
0.4142135623776831
  0
VERTEX
  5
517
  8
_ANNOTATION$DIMS_AND_ANNO
 10
-227.1130151823043
 20
-721.7687627109085
 30
0.0
  0
VERTEX
  5
518
  8
_ANNOTATION$DIMS_AND_ANNO
 10
-227.1444976208754
 20
-721.4089167914206
 30
0.0
 42
0.4142135623860358
  0
VERTEX
  5
519
  8
_ANNOTATION$DIMS_AND_ANNO
 10
-227.1871492130344
 20
-721.3731278561706
 30
0.0
  0
SEQEND
  5
51A
  8
_ANNOTATION$DIMS_AND_ANNO
  0
POLYLINE
  5
51B
  8
_ANNOTATION$DIMS_AND_ANNO
 66
     1
 10
0.0
 20
0.0
 30
0.0
 70
     1
  0
VERTEX
  5
51C
  8
_ANNOTATION$DIMS_AND_ANNO
 10
-226.8067126551017
 20
-721.3398439701609
 30
0.0
 42
0.4142135623695529
  0
VERTEX
  5
51D
  8
_ANNOTATION$DIMS_AND_ANNO
 10
-226.8425015903516
 20
-721.38249556232
 30
0.0
  0
VERTEX
  5
51E
  8
_ANNOTATION$DIMS_AND_ANNO
 10
-226.8110191517801
 20
-721.7423414818078
 30
0.0
 42
0.4142135623654
  0
VERTEX
  5
51F
  8
_ANNOTATION$DIMS_AND_ANNO
 10
-226.7683675596212
 20
-721.7781304170575
 30
0.0
  0
VERTEX
  5
520
  8
_ANNOTATION$DIMS_AND_ANNO
 10
-226.650706768508
 20
-721.7678364316936
 30
0.0
 42
0.4142135623809243
  0
VERTEX
  5
521
  8
_ANNOTATION$DIMS_AND_ANNO
 10
-226.6149178332585
 20
-721.7251848395346
 30
0.0
  0
VERTEX
  5
522
  8
_ANNOTATION$DIMS_AND_ANNO
 10
-226.6464002718295
 20
-721.3653389200467
 30
0.0
 42
0.4142135623727129
  0
VERTEX
  5
523
  8
_ANNOTATION$DIMS_AND_ANNO
 10
-226.6890518639885
 20
-721.3295499847969
 30
0.0
  0
SEQEND
  5
524
  8
_ANNOTATION$DIMS_AND_ANNO
  0
POLYLINE
  5
525
  8
_ANNOTATION$DIMS_AND_ANNO
 66
     1
 10
0.0
 20
0.0
 30
0.0
 70
     1
  0
VERTEX
  5
526
  8
_ANNOTATION$DIMS_AND_ANNO
 10
-241.7055841414851
 20
-721.5053440480448
 30
0.0
  0
VERTEX
  5
527
  8
_ANNOTATION$DIMS_AND_ANNO
 10
-241.8232449325984
 20
-721.4950500626808
 30
0.0
  0
VERTEX
  5
528
  8
_ANNOTATION$DIMS_AND_ANNO
 10
-241.8538365983029
 20
-721.844714401711
 30
0.0
  0
VERTEX
  5
529
  8
_ANNOTATION$DIMS_AND_ANNO
 10
-241.7361758071896
 20
-721.8550083870749
 30
0.0
  0
SEQEND
  5
52A
  8
_ANNOTATION$DIMS_AND_ANNO
  0
POLYLINE
  5
52B
  8
_ANNOTATION$DIMS_AND_ANNO
 66
     1
 10
0.0
 20
0.0
 30
0.0
 70
     1
  0
VERTEX
  5
52C
  8
_ANNOTATION$DIMS_AND_ANNO
 10
-240.4536731840558
 20
-721.9672128275413
 30
0.0
  0
VERTEX
  5
52D
  8
_ANNOTATION$DIMS_AND_ANNO
 10
-240.3360123929426
 20
-721.9775068129052
 30
0.0
  0
VERTEX
  5
52E
  8
_ANNOTATION$DIMS_AND_ANNO
 10
-240.3054207272381
 20
-721.627842473875
 30
0.0
  0
VERTEX
  5
52F
  8
_ANNOTATION$DIMS_AND_ANNO
 10
-240.4230815183513
 20
-721.6175484885111
 30
0.0
  0
SEQEND
  5
530
  8
_ANNOTATION$DIMS_AND_ANNO
  0
POLYLINE
  5
531
  8
_ANNOTATION$DIMS_AND_ANNO
 66
     1
 10
0.0
 20
0.0
 30
0.0
 70
     1
  0
VERTEX
  5
532
  8
_ANNOTATION$DIMS_AND_ANNO
 10
-228.1880328224863
 20
-721.5053440480445
 30
0.0
  0
VERTEX
  5
533
  8
_ANNOTATION$DIMS_AND_ANNO
 10
-228.1574411567819
 20
-721.8550083870747
 30
0.0
  0
VERTEX
  5
534
  8
_ANNOTATION$DIMS_AND_ANNO
 10
-228.0397803656688
 20
-721.8447144017108
 30
0.0
  0
VERTEX
  5
535
  8
_ANNOTATION$DIMS_AND_ANNO
 10
-228.0703720313732
 20
-721.4950500626805
 30
0.0
  0
SEQEND
  5
536
  8
_ANNOTATION$DIMS_AND_ANNO
  0
POLYLINE
  5
537
  8
_ANNOTATION$DIMS_AND_ANNO
 66
     1
 10
0.0
 20
0.0
 30
0.0
 70
     1
  0
VERTEX
  5
538
  8
_ANNOTATION$DIMS_AND_ANNO
 10
-229.4399437799159
 20
-721.9672128275412
 30
0.0
  0
VERTEX
  5
539
  8
_ANNOTATION$DIMS_AND_ANNO
 10
-229.4705354456203
 20
-721.617548488511
 30
0.0
  0
VERTEX
  5
53A
  8
_ANNOTATION$DIMS_AND_ANNO
 10
-229.5881962367334
 20
-721.6278424738749
 30
0.0
  0
VERTEX
  5
53B
  8
_ANNOTATION$DIMS_AND_ANNO
 10
-229.5576045710291
 20
-721.9775068129051
 30
0.0
  0
SEQEND
  5
53C
  8
_ANNOTATION$DIMS_AND_ANNO
  0
POLYLINE
  5
53D
  8
_ANNOTATION$DIMS_AND_ANNO
 66
     1
 10
0.0
 20
0.0
 30
0.0
 70
     1
  0
VERTEX
  5
53E
  8
_ANNOTATION$DIMS_AND_ANNO
 10
-268.0919097941575
 20
-722.7371145064786
 30
0.0
  0
VERTEX
  5
53F
  8
_ANNOTATION$DIMS_AND_ANNO
 10
-271.7330956601683
 20
-722.4185520214123
 30
0.0
 42
-0.4142135623719513
  0
VERTEX
  5
540
  8
_ANNOTATION$DIMS_AND_ANNO
 10
-272.090985012666
 20
-721.9920360998219
 30
0.0
  0
VERTEX
  5
541
  8
_ANNOTATION$DIMS_AND_ANNO
 10
-272.0070890319503
 20
-721.0331006522493
 30
0.0
 42
-0.4142135623723726
  0
VERTEX
  5
542
  8
_ANNOTATION$DIMS_AND_ANNO
 10
-271.5805731103594
 20
-720.6752112997514
 30
0.0
  0
VERTEX
  5
543
  8
_ANNOTATION$DIMS_AND_ANNO
 10
-266.0523307726904
 20
-720.9957116759019
 30
0.0
 42
0.0142780111747313
  0
VERTEX
  5
544
  8
_ANNOTATION$DIMS_AND_ANNO
 10
-260.6660674972777
 20
-720.9957116759019
 30
0.0
  0
VERTEX
  5
545
  8
_ANNOTATION$DIMS_AND_ANNO
 10
-255.1378251596109
 20
-720.6752112997511
 30
0.0
 42
-0.4142135623723514
  0
VERTEX
  5
546
  8
_ANNOTATION$DIMS_AND_ANNO
 10
-254.7113092380206
 20
-721.0331006522488
 30
0.0
  0
VERTEX
  5
547
  8
_ANNOTATION$DIMS_AND_ANNO
 10
-254.6274132573048
 20
-721.9920360998215
 30
0.0
 42
-0.4142135623732894
  0
VERTEX
  5
548
  8
_ANNOTATION$DIMS_AND_ANNO
 10
-254.9853026098026
 20
-722.4185520214113
 30
0.0
  0
VERTEX
  5
549
  8
_ANNOTATION$DIMS_AND_ANNO
 10
-258.6319357097352
 20
-722.7375910776943
 30
0.0
 42
0.9999999999899541
  0
VERTEX
  5
54A
  8
_ANNOTATION$DIMS_AND_ANNO
 10
-258.6264884758131
 20
-722.7998532463247
 30
0.0
  0
VERTEX
  5
54B
  8
_ANNOTATION$DIMS_AND_ANNO
 10
-258.1565786218529
 20
-722.7587414612244
 30
0.0
 42
-0.4400105308938432
  0
VERTEX
  5
54C
  8
_ANNOTATION$DIMS_AND_ANNO
 10
-257.8847896861662
 20
-723.0077901357473
 30
0.0
  0
VERTEX
  5
54D
  8
_ANNOTATION$DIMS_AND_ANNO
 10
-257.884789686166
 20
-729.6913465137428
 30
0.0
 42
-0.3888787318530929
  0
VERTEX
  5
54E
  8
_ANNOTATION$DIMS_AND_ANNO
 10
-258.7976339434185
 20
-730.6875412118351
 30
0.0
  0
VERTEX
  5
54F
  8
_ANNOTATION$DIMS_AND_ANNO
 10
-263.2720433922374
 20
-731.0790013145795
 30
0.0
 42
-0.043660942907792
  0
VERTEX
  5
550
  8
_ANNOTATION$DIMS_AND_ANNO
 10
-263.4463548777324
 20
-731.0790013145793
 30
0.0
  0
VERTEX
  5
551
  8
_ANNOTATION$DIMS_AND_ANNO
 10
-267.9207643265513
 20
-730.687541211835
 30
0.0
 42
-0.3888787318529091
  0
VERTEX
  5
552
  8
_ANNOTATION$DIMS_AND_ANNO
 10
-268.8336085838039
 20
-729.6913465137432
 30
0.0
  0
VERTEX
  5
553
  8
_ANNOTATION$DIMS_AND_ANNO
 10
-268.8336085838041
 20
-723.0077901357475
 30
0.0
 42
-0.440010530888724
  0
VERTEX
  5
554
  8
_ANNOTATION$DIMS_AND_ANNO
 10
-268.561819648117
 20
-722.7587414612246
 30
0.0
  0
VERTEX
  5
555
  8
_ANNOTATION$DIMS_AND_ANNO
 10
-268.0973570280806
 20
-722.7993766751094
 30
0.0
 42
1.091308501121746
  0
SEQEND
  5
556
  8
_ANNOTATION$DIMS_AND_ANNO
  0
POLYLINE
  5
557
  8
_ANNOTATION$DIMS_AND_ANNO
 66
     1
 10
0.0
 20
0.0
 30
0.0
 70
     1
  0
VERTEX
  5
558
  8
_ANNOTATION$DIMS_AND_ANNO
 10
-271.0011976128237
 20
-721.3834218415349
 30
0.0
  0
VERTEX
  5
559
  8
_ANNOTATION$DIMS_AND_ANNO
 10
-271.1188584039368
 20
-721.3731278561709
 30
0.0
 42
0.4142135623829338
  0
VERTEX
  5
55A
  8
_ANNOTATION$DIMS_AND_ANNO
 10
-271.1615099960959
 20
-721.4089167914206
 30
0.0
  0
VERTEX
  5
55B
  8
_ANNOTATION$DIMS_AND_ANNO
 10
-271.1929924346671
 20
-721.7687627109086
 30
0.0
 42
0.4142135623772084
  0
VERTEX
  5
55C
  8
_ANNOTATION$DIMS_AND_ANNO
 10
-271.1572034994173
 20
-721.8114143030673
 30
0.0
  0
VERTEX
  5
55D
  8
_ANNOTATION$DIMS_AND_ANNO
 10
-271.0395427083042
 20
-721.8217082884315
 30
0.0
 42
0.4142135623784511
  0
VERTEX
  5
55E
  8
_ANNOTATION$DIMS_AND_ANNO
 10
-270.996891116145
 20
-721.7859193531817
 30
0.0
  0
VERTEX
  5
55F
  8
_ANNOTATION$DIMS_AND_ANNO
 10
-270.9654086775737
 20
-721.4260734336939
 30
0.0
 42
0.4142135623687402
  0
SEQEND
  5
560
  8
_ANNOTATION$DIMS_AND_ANNO
  0
POLYLINE
  5
561
  8
_ANNOTATION$DIMS_AND_ANNO
 66
     1
 10
0.0
 20
0.0
 30
0.0
 70
     1
  0
VERTEX
  5
562
  8
_ANNOTATION$DIMS_AND_ANNO
 10
-271.4992949618695
 20
-721.339843970161
 30
0.0
  0
VERTEX
  5
563
  8
_ANNOTATION$DIMS_AND_ANNO
 10
-271.6169557529826
 20
-721.329549984797
 30
0.0
 42
0.4142135623792159
  0
VERTEX
  5
564
  8
_ANNOTATION$DIMS_AND_ANNO
 10
-271.6596073451415
 20
-721.365338920047
 30
0.0
  0
VERTEX
  5
565
  8
_ANNOTATION$DIMS_AND_ANNO
 10
-271.691089783713
 20
-721.7251848395347
 30
0.0
 42
0.414213562364216
  0
VERTEX
  5
566
  8
_ANNOTATION$DIMS_AND_ANNO
 10
-271.6553008484631
 20
-721.7678364316936
 30
0.0
  0
VERTEX
  5
567
  8
_ANNOTATION$DIMS_AND_ANNO
 10
-271.53764005735
 20
-721.7781304170577
 30
0.0
 42
0.414213562372753
  0
VERTEX
  5
568
  8
_ANNOTATION$DIMS_AND_ANNO
 10
-271.4949884651909
 20
-721.7423414818079
 30
0.0
  0
VERTEX
  5
569
  8
_ANNOTATION$DIMS_AND_ANNO
 10
-271.4635060266198
 20
-721.3824955623201
 30
0.0
 42
0.4142135623761486
  0
SEQEND
  5
56A
  8
_ANNOTATION$DIMS_AND_ANNO
  0
POLYLINE
  5
56B
  8
_ANNOTATION$DIMS_AND_ANNO
 66
     1
 10
0.0
 20
0.0
 30
0.0
 70
     1
  0
VERTEX
  5
56C
  8
_ANNOTATION$DIMS_AND_ANNO
 10
-255.7172006571467
 20
-721.3834218415346
 30
0.0
 42
0.4142135623698587
  0
VERTEX
  5
56D
  8
_ANNOTATION$DIMS_AND_ANNO
 10
-255.7529895923964
 20
-721.4260734336938
 30
0.0
  0
VERTEX
  5
56E
  8
_ANNOTATION$DIMS_AND_ANNO
 10
-255.7215071538253
 20
-721.7859193531815
 30
0.0
 42
0.414213562364278
  0
VERTEX
  5
56F
  8
_ANNOTATION$DIMS_AND_ANNO
 10
-255.6788555616662
 20
-721.8217082884312
 30
0.0
  0
VERTEX
  5
570
  8
_ANNOTATION$DIMS_AND_ANNO
 10
-255.5611947705531
 20
-721.8114143030673
 30
0.0
 42
0.4142135623723494
  0
VERTEX
  5
571
  8
_ANNOTATION$DIMS_AND_ANNO
 10
-255.5254058353032
 20
-721.7687627109085
 30
0.0
  0
VERTEX
  5
572
  8
_ANNOTATION$DIMS_AND_ANNO
 10
-255.5568882738746
 20
-721.4089167914204
 30
0.0
 42
0.4142135623801326
  0
VERTEX
  5
573
  8
_ANNOTATION$DIMS_AND_ANNO
 10
-255.5995398660336
 20
-721.3731278561706
 30
0.0
  0
SEQEND
  5
574
  8
_ANNOTATION$DIMS_AND_ANNO
  0
POLYLINE
  5
575
  8
_ANNOTATION$DIMS_AND_ANNO
 66
     1
 10
0.0
 20
0.0
 30
0.0
 70
     1
  0
VERTEX
  5
576
  8
_ANNOTATION$DIMS_AND_ANNO
 10
-255.2191033081008
 20
-721.3398439701608
 30
0.0
 42
0.4142135623730575
  0
VERTEX
  5
577
  8
_ANNOTATION$DIMS_AND_ANNO
 10
-255.2548922433509
 20
-721.3824955623198
 30
0.0
  0
VERTEX
  5
578
  8
_ANNOTATION$DIMS_AND_ANNO
 10
-255.2234098047792
 20
-721.7423414818077
 30
0.0
 42
0.4142135623741475
  0
VERTEX
  5
579
  8
_ANNOTATION$DIMS_AND_ANNO
 10
-255.1807582126203
 20
-721.7781304170574
 30
0.0
  0
VERTEX
  5
57A
  8
_ANNOTATION$DIMS_AND_ANNO
 10
-255.0630974215072
 20
-721.7678364316935
 30
0.0
 42
0.4142135623838187
  0
VERTEX
  5
57B
  8
_ANNOTATION$DIMS_AND_ANNO
 10
-255.0273084862577
 20
-721.7251848395344
 30
0.0
  0
VERTEX
  5
57C
  8
_ANNOTATION$DIMS_AND_ANNO
 10
-255.0587909248287
 20
-721.3653389200466
 30
0.0
 42
0.4142135623733938
  0
VERTEX
  5
57D
  8
_ANNOTATION$DIMS_AND_ANNO
 10
-255.1014425169877
 20
-721.3295499847968
 30
0.0
  0
SEQEND
  5
57E
  8
_ANNOTATION$DIMS_AND_ANNO
  0
POLYLINE
  5
57F
  8
_ANNOTATION$DIMS_AND_ANNO
 66
     1
 10
0.0
 20
0.0
 30
0.0
 70
     1
  0
VERTEX
  5
580
  8
_ANNOTATION$DIMS_AND_ANNO
 10
-270.1179747944843
 20
-721.5053440480447
 30
0.0
  0
VERTEX
  5
581
  8
_ANNOTATION$DIMS_AND_ANNO
 10
-270.2356355855975
 20
-721.4950500626807
 30
0.0
  0
VERTEX
  5
582
  8
_ANNOTATION$DIMS_AND_ANNO
 10
-270.266227251302
 20
-721.8447144017109
 30
0.0
  0
VERTEX
  5
583
  8
_ANNOTATION$DIMS_AND_ANNO
 10
-270.1485664601888
 20
-721.8550083870748
 30
0.0
  0
SEQEND
  5
584
  8
_ANNOTATION$DIMS_AND_ANNO
  0
POLYLINE
  5
585
  8
_ANNOTATION$DIMS_AND_ANNO
 66
     1
 10
0.0
 20
0.0
 30
0.0
 70
     1
  0
VERTEX
  5
586
  8
_ANNOTATION$DIMS_AND_ANNO
 10
-268.8660638370549
 20
-721.9672128275412
 30
0.0
  0
VERTEX
  5
587
  8
_ANNOTATION$DIMS_AND_ANNO
 10
-268.7484030459418
 20
-721.9775068129051
 30
0.0
  0
VERTEX
  5
588
  8
_ANNOTATION$DIMS_AND_ANNO
 10
-268.7178113802373
 20
-721.6278424738749
 30
0.0
  0
VERTEX
  5
589
  8
_ANNOTATION$DIMS_AND_ANNO
 10
-268.8354721713504
 20
-721.617548488511
 30
0.0
  0
SEQEND
  5
58A
  8
_ANNOTATION$DIMS_AND_ANNO
  0
POLYLINE
  5
58B
  8
_ANNOTATION$DIMS_AND_ANNO
 66
     1
 10
0.0
 20
0.0
 30
0.0
 70
     1
  0
VERTEX
  5
58C
  8
_ANNOTATION$DIMS_AND_ANNO
 10
-256.6004234754855
 20
-721.5053440480444
 30
0.0
  0
VERTEX
  5
58D
  8
_ANNOTATION$DIMS_AND_ANNO
 10
-256.5698318097811
 20
-721.8550083870746
 30
0.0
  0
VERTEX
  5
58E
  8
_ANNOTATION$DIMS_AND_ANNO
 10
-256.4521710186679
 20
-721.8447144017107
 30
0.0
  0
VERTEX
  5
58F
  8
_ANNOTATION$DIMS_AND_ANNO
 10
-256.4827626843723
 20
-721.4950500626804
 30
0.0
  0
SEQEND
  5
590
  8
_ANNOTATION$DIMS_AND_ANNO
  0
POLYLINE
  5
591
  8
_ANNOTATION$DIMS_AND_ANNO
 66
     1
 10
0.0
 20
0.0
 30
0.0
 70
     1
  0
VERTEX
  5
592
  8
_ANNOTATION$DIMS_AND_ANNO
 10
-257.852334432915
 20
-721.9672128275411
 30
0.0
  0
VERTEX
  5
593
  8
_ANNOTATION$DIMS_AND_ANNO
 10
-257.8829260986194
 20
-721.6175484885109
 30
0.0
  0
VERTEX
  5
594
  8
_ANNOTATION$DIMS_AND_ANNO
 10
-258.0005868897326
 20
-721.6278424738748
 30
0.0
  0
VERTEX
  5
595
  8
_ANNOTATION$DIMS_AND_ANNO
 10
-257.9699952240282
 20
-721.977506812905
 30
0.0
  0
SEQEND
  5
596
  8
_ANNOTATION$DIMS_AND_ANNO
  0
POLYLINE
  5
597
  8
_ANNOTATION$DIMS_AND_ANNO
 66
     1
 10
0.0
 20
0.0
 30
0.0
 70
     1
  0
VERTEX
  5
598
  8
_ANNOTATION$DIMS_AND_ANNO
 10
-273.5973990330541
 20
-720.195469809222
 30
0.0
  0
VERTEX
  5
599
  8
_ANNOTATION$DIMS_AND_ANNO
 10
-273.5973990330541
 20
-744.195469809222
 30
0.0
  0
VERTEX
  5
59A
  8
_ANNOTATION$DIMS_AND_ANNO
 10
-225.5973990330541
 20
-744.195469809222
 30
0.0
  0
VERTEX
  5
59B
  8
_ANNOTATION$DIMS_AND_ANNO
 10
-225.5973990330541
 20
-720.195469809222
 30
0.0
  0
SEQEND
  5
59C
  8
_ANNOTATION$DIMS_AND_ANNO
  0
ENDSEC
  0
EOF
